Song name
# A B C D E F G H I J K L M N O P Q R S T U V W X Y Z

Misc Unsigned Bands - Dustin Fowler - My Story tab

E|----------------------------------------------------------|
B|----------------------------------------------------------|
G|----------------------------------------------------------|
D|2-2-4-2-5-2-4-2-----------------------2-2-4-2-5-2-4-2-3---|
A|0-0-0-0-0-0-0-0-3--2-2-4-2-5-2-4-2----0-0-0-0-0-0-0-0-----|
E|-------------------0-0-0-0-0-0-0-0-3----------------------|

E|----------------------------------------------------------------------|
B|----------------------------------------------------------------------|
G|--2-2-4-2-5-2-4-2-------------------2-2-4-2-5-2-4-2-------------------|
D|--0-0-0-0-0-0-0-0--2-2-4-2-5-2-4-2--0-0-0-0-0-0-0-0--2-2-4-2-5-2-4-2--|
A|-------------------0-0-0-0-0-0-0-0-------------------0-0-0-0-0-0-0-0--|
E|----------------------------------------------------------------------|

E|----------------------------------------------------------------------|
B|----------------------------------------------------------------------|
G|----------------------------------------------------------------------|
D|-------------------2-2-4-2-5-2-4-2-------------------2-2-4-2-5-2-4-2--|
A|--2-2-4-2-5-2-4-2--0-0-0-0-0-0-0-0--2-2-4-2-5-2-4-2--0-0-0-0-0-0-0-0--|
E|--0-0-0-0-0-0-0-0-------------------0-0-0-0-0-0-0-0-------------------|

E|----------------------------------------------------------------------|
B|----------------------------------------------------------------------|
G|----------------------------------------------------------------------|
D|----------------------------------------------------------------------|
A|--0-0-0-0-0-0-0-0-----------------------------------------------------|
E|--2-2-4-2-5-2-4-2-3---------------------------------------------------|
Tap to rate this tab
 
# A B C D E F G H I J K L M N O P Q R S T U V W X Y Z