Misc Unsigned Bands - Bad Ethic - She Said tab

E|-------------------3--3---3--3----------------3--3--3--3--|
B|-3----------------------------3-------------------------3-|
G|-2---2--2---2--2--2--2---2--2-----2--2--2--2-2--2--2--2---|Repeat x2
D|----0--0---0--0------------------0--0--0--0---------------|
A|----------------------------------------------------------|
E|-3----3---3--3--0--0---0--0----3--3--3--3---0--0--0--0----|


E|----------------------------------------------------------|
B|----------------------------------------------------------|
G|---2--2--0--0--0--0---0--0--------------------------------|2x
D|--0--0--0--0--2--2---2--2-2-------------------------------|
A|----------------------------------------------------------|
E|-3--3--2--2--0--0---0--0----------------------------------|


E|----------------------------------------------------------|
B|-----0--0---0--0--3--3--0--0--3--3--3--3--3--3------------|
G|----0--0---0--0--0--0--0--0--0--0--0--0--0--0-------------|1x
D|----------------------------------------------------------|
A|-0-3--3---3--3--0--0--3--3--0--0--3--3--3--3--------------|
E|----------------------------------------------------------|


E|-------------3---3-3-3-3-3--------------------------------------------|
B|--------3-3--3---3-3-3-3-3--------------------------------------------|
G|--------0-0--2---2-2-0-0-0--------------------------------Pre-Chorus--| x2
D|-2-2-2--0-0--2---2-2-0-0-0--------------------------------------------|
A|-2-2-2--0-0----------3-3-3--------------------------------------------|
E|-0-0-0--3-3----------3-3-3--------------------------------------------|


E|--------3-3-3---------------------------------------------|
B|--------3-3-3---------------------------------------------|
G|--------2-2-0---------------------------------------------|Chorus x2
D|-2-2-2--0-0-0---------------------------------------------|
A|-2-2-2--0-0-3---------------------------------------------|
E|-0-0-0--3-3-3---------------------------------------------|
Tap to rate this tab
 
# A B C D E F G H I J K L M N O P Q R S T U V W X Y Z