Song name
# A B C D E F G H I J K L M N O P Q R S T U V W X Y Z

Misc Unsigned Bands - Matthew Lapierre - Riff Of The Day 6 tab

Hello UG Community, this is the tablature for the 6th video in my "Riff Of The Day" 
series, which can be found at http://www.youtube.com/watch?v=5L3jN3JVEtI .  This particular 
riff is in the key of D min. specifically D min. blues. Enjoy :)

Gtr I (D A D G B E) - 'Matthew LaPierre'

 4/4
  Gtr I
         ~~~      ~~~
  E E E  Q   E E  Q    S S S S S S S S S S S S S S
|-----------------------------------------------------|
|-----------------------------------------------------|
|-----------------------------------------------------|
|----------------------------------------------3-5----|
|-----5--------3---------------------3-----3-5--------|
|-0-0---[6]--0---[5]---0-3-5-6-3-5-6---5-6------------|


         ~~~      ~~~
  E E E  Q   E E  Q   S S S S S S S S S S S S E
|--------------------------------------------------|
|--------------------------------------------------|
|--------------------------------------------------|
|--------------------------------------------------|
|-----5--------3-----------------------------------|
|-0-0---[6]--0---[5]--0-0-3-3-5-5-6-6-5-5-3-3-0----|


         ~~~      ~~~
  E E E  Q   E E  Q    S S S S S S S S S S S S S S
|-----------------------------------------------------|
|-----------------------------------------------------|
|-----------------------------------------------------|
|----------------------------------------------3-5----|
|-----5--------3---------------------3-----3-5--------|
|-0-0---[6]--0---[5]---0-3-5-6-3-5-6---5-6------------|


         ~~~      ~~~
  E E E  Q   E E  Q    S S S S S S S S S S S S S S.
|------------------------------------------------------|
|------------------------------------------------------|
|------------------------------------------------------|
|----------------------5-3---3-------------------------|
|-----5--------3-----------5---5-3-5-3---3-------------|
|-0-0---[6]--0---[5]-------------------6---6-5-3-0-----|




--------------------------------------------------------------------------------


Duration Legend
---------------
W - whole; H - half; Q - quarter; E - 8th; S - 16th; T - 32nd; X - 64th; a - acciaccatura
+ - note tied to previous; . - note dotted; .. - note double dotted
Uncapitalized letters represent notes that are staccato (1/2 duration)
Irregular groupings are notated above the duration line
Duration letters will always appear directly above the note/fret number it represents the
duration for.  Duration letters with no fret number below them represent rests.  Multi-
bar rests are notated in the form Wxn, where n is the number of bars to rest for.  Low
melody durations appear below the staff

Tablature Legend
----------------
 h   - hammer-on
 p   - pull-off
 b   - bend
 pb  - pre-bend
 r   - bend release (if no number after the r, then release immediately)
 /\  - slide into or out of (from/to "nowhere")
 s   - legato slide
 S   - shift slide
 - natural harmonic
[n]  - artificial harmonic
n(n) - tapped harmonic
 ~   - vibrato
 tr  - trill
 T   - tap
 TP  - trem. picking
 PM  - palm muting
\n/  - tremolo bar dip; n = amount to dip
 \n  - tremolo bar down
 n/  - tremolo bar up
/n\  - tremolo bar inverted dip
 =   - hold bend; also acts as connecting device for hammers/pulls
 <> - volume swell (louder/softer)
 x   - on rhythm slash represents muted slash
 o   - on rhythm slash represents single note slash

Misc Legend
-----------
 |  - bar
||  - double bar
||o - repeat start
o|| - repeat end
*|  - double bar (ending)
 :  - bar (freetime)
 $  - Segno
 &  - Coda
Tempo markers -  = BPM(8/16=s8/s16), where s8 = swing 8ths, s16 = swing 16ths
Tap to rate this tab
 
# A B C D E F G H I J K L M N O P Q R S T U V W X Y Z