Song name
# A B C D E F G H I J K L M N O P Q R S T U V W X Y Z

Misc Unsigned Bands - Broken Culture - The World Can Wait tab

Band - Broken Culture
Album - The World Can Wait E.P
Track List:
1.An Introduction
2.No Justice, No Peace
3.The World Can Wait
4.Kill Yourself
5.We've Got Rights
6.Bonus Track! Athiest Anthem (Leftover Crack Cover)[Released Via Myspace]

Tabbed By: Tyler Freear (SumFX)

Tuning: Standard (E A D G B E)

Pretty Awesome Crack Rock Steady Band From Canada!

:Everything Is Distorted Apart From When Noted:

.=Palm Mute
x=Mute String(s)
/=Slide
Dist.=Distortion

-----------------------------------------------------------------------------
-----------------------------------------------------------------------------
                             An Introduction
Riff 1
|-------------------|
|-------------------|
|-------------------| x2
|-22-33--2222-3333--|
|-22-33--2222-3333--|
|-00-11--0000-1111--|

Riff 2
|-----------------------------|
|-----------------------------|
|-33333-----------------------|
|-33333-333-5-3-2-------------|
|-11111-333-5-3-2-2222222222--|
|-------111-3-1-0-0000000000--|
                  ..........
Riff 3
|-------------------|
|-------------------|
|-33333-------------|
|-33333-333-5-3-2---|
|-11111-333-5-3-2---|
|-------111-3-1-0---|

Bass Intro
Riff 1
Bass Break
Riff 1
Bass Break
Riff 1
Bass Break
Riff 1
Bass Break
Riff 1
Riff 2 x3
Riff 3
-----------------------------------------------------------------------------
-----------------------------------------------------------------------------
                           No Justice, No Peace
Intro
|--------------------------------------|
|--------------------------------------|
|-9-xxx-9-8-xxx-8-9-xxx-9-111111111111-|
|-9-xxx-9-8-xxx-8-9-xxx-9-111111111111-|
|-7-xxx-7-6-xxx-6-7-xxx-7-9-9-9-9-9-9--|
|--------------------------------------|

|------------------------------------|
|------------------------------------|
|-9----9-8----8-9----9-111111111111--|
|-9----9-8----8-9----9-111111111111--|
|-7----7-6----6-7----7-9-9-9-9-9-9---|
|------------------------------------|

Verse 1
|--------------------------------------|
|--------------------------------------|
|-9-xxx-9-8-xxx-8-9-xxx-9-111111111111-|
|-9-xxx-9-8-xxx-8-9-xxx-9-111111111111-|
|-7-xxx-7-6-xxx-6-7-xxx-7-9-9-9-9-9-9--|
|--------------------------------------|

Chorus
|-------------------------------|
|-------------------------------|
|-------------------------------|
|-5555555-4444444-7777777-4-5-4-|
|-5555555-4444444-7777777-4-5-4-|
|-3333333-2222222-5555555-2-3-2-|

|-------------------------------|
|-------------------------------|
|-------------------------------|
|-5555555-4444444-7-------4-5-4-|
|-5555555-4444444-7-------4-5-4-|
|-3333333-2222222-5-------2-3-2-|

|-------------------------------|
|-------------------------------|
|-------------------------------|
|-5555555-4444444-7777777-4-5-4-| x2
|-5555555-4444444-7777777-4-5-4-|
|-3333333-2222222-5555555-2-3-2-|

Chorus 2
|----------------------------------------|
|----------------------------------------|
|-----------------10101010101010-9999999-|
|-7777777-9999999-10101010101010-9999999-| x4
|-7777777-9999999-8-8-8-8-8-8-8--7777777-|
|-5555555-7777777------------------------|

Bridge
|-------------------|
|-------------------|
|-------------------|
|-555-444-777-4-5-4-| x7
|-555-444-777-4-5-4-|
|-333-222-555-2-3-2-|

Outro
|-----------------|
|-----------------|
|-----------------|
|-555-444-7777-4--|
|-555-444-7777-4--|
|-333-222-5555-2--|

Structure
Intro
Verse
Chorus
Chorus 2
Verse
Chorus
Bridge
Outro
-----------------------------------------------------------------------------
-----------------------------------------------------------------------------
                            The World Can Wait
Intro
Clean Tone
|-------5--------|-------6--------|
|---------6------|---------6------|
|-----7-----7----|-----------7----|
|---7---------7--|-----8-------8--|
|-5--------------|---8------------|
|----------------|-6--------------|

|-------3--------|-5-------|
|---------3------|-5-------|
|-----------4----|-6-------|
|-----5----------|-7-------|
|---5------------|-7-------|
|-3--------------|-5-------|

Verse
Clean Tone, Listen For Strumming)
|-5----6----3----5---|
|-6----6----3----5---|
|-7----7----4----6---|
|-7----8----5----7---|
|-5----8----5----7---|
|------6----3----5---|

Chorus
|------------------|
|------------------|
|-777--------------|
|-777-888-55-7777--|
|-555-888-55-7777--|
|-----666-33-5555--|

Bridge
|-----------------------------------------------------|
|-----------------------------------------------------|
|-77777777-1010101010101010---------------------------|
|-xxxxxxxx-x-x-x-x-x-x-x-x--88888888-1010101010101010-|
|-55555555-8-8-8-8-8-8-8-8--xxxxxxxx-x-x-x-x-x-x-x-x--|
|---------------------------66666666-8-8-8-8-8-8-8-8--|

Outro
|-------------------|
|-------------------|
|-7-----------------|
|-7----------7\-----|
|-5-----------------|
|-------------------|

Structure
Intro
Verse
Chorus x8
Verse
Chorus x8
Bridge x2
Chorus x8
Outro
-----------------------------------------------------------------------------
-----------------------------------------------------------------------------
                              Kill Yourself
Intro
|-33-3333-55-5555-66-6666-55-5555--|
|-33-3333-33-3333-33-3333-33-3333--|
|----------------------------------|
|----------------------------------| 
|----------------------------------|
|----------------------------------|

Verse 
|---------------------------|
|---------------------------|
|---------------------------|
|-5555-7777-8888-10101010---|
|-5555-7777-8888-10101010---| x3
|-3333-5555-6666-8-8-8-8----|

|-----------------------------------------------------|
|-----------------------------------------------------|
|-121212121212-141414141414-151515151515-171717171717-|
|-x-x-x-x-x-x--x-x-x-x-x-x--x-x-x-x-x-x--x-x-x-x-x-x--|
|-101010101010-121212121212-131313131313-151515151515-|
|-----------------------------------------------------|

Chorus
|-------------------|
|-------------------|
|---------555-333---|
|-555-333-555-333---| 
|-555-333-333-111---|
|-333-111-----------|

G5
|-------------------|
|-------------------|
|-------------------|
|--5----------------|
|--5----------------|
|--3----------------|

Structure
Intro x4
Verse
Chorus x4
Verse 2
Chorus x8
G5
Bass Break
Chorus x8
G5
-----------------------------------------------------------------------------
-----------------------------------------------------------------------------
                              We've Got Rights
Intro
Clean Tone
|-------------------|
|-------------------|
|-xxx-4--5-7--------|
|-xxx-4--5-7--------|
|-xxx-2--3-5--------|
|-------------------|

Verse
Clean Tone
|-77-77-77-77--55-55-55-55--|
|-88-88-88-88--66-66-66-66--|
|-99-99-99-99--77-77-77-77--|
|-99-99-99-99--77-77-77-77--|
|-77-77-77-77--55-55-55-55--|
|---------------------------|

|-77-77-77-77--55-55-77-77-|
|-88-88-88-88--66-66-77-77-|
|-99-99-99-99--77-77-77-77-|
|-99-99-99-99--77-77-99-99-|
|-77-77-77-77--55-55-99-99-|
|--------------------77-77-|

|-77-77-77-77--55-55-55-55--|
|-88-88-88-88--66-66-66-66--|
|-99-99-99-99--77-77-77-77--|
|-99-99-99-99--77-77-77-77--|
|-77-77-77-77--55-55-55-55--|
|---------------------------|
                     Dist.
|-77-77-77-77--55-55---------|
|-88-88-88-88--66-66---------|
|-99-99-99-99--77-77---------|
|-99-99-99-99--77-77-1010-9--|
|-77-77-77-77--55-55-1010-9--|
|--------------------8-8--7--|

Chorus
|--------x3-----------|------------------|
|---------------------|------------------|
|-99999999------------|---------4444444--|
|-99999999-1010-99-12-|-5555555-4444444--|
|-77777777-1010-99-12-|-5555555-2222222--|
|----------8-8--77-10-|-3333333----------|

Bridge
|---------------------------------|
|---------------------------------|
|-------------------------5555555-|
|-3333333-5555555-2222222-5555555-|
|-3333333-5555555-2222222-3333333-|
|-1111111-3333333-0000000---------|

|---------------------------------|
|---------------------------------|
|---------------------------------|
|-3333333-5555555-22222222222222--|
|-3333333-5555555-22222222222222--|
|-1111111-3333333-00000000000000--|

Bridge 2/Solo
|--------------------------------------------------|
|--------------------------------------------------|
|-121212121212-141414141414-111111111111-99999999--|
|-x-x-x-x-x-x--x-x-x-x-x-x--x-x-x-x-x-x--xxxxxxxx--|
|-101010101010-121212121212-9-9-9-9-9-9--77777777--|
|--------------------------------------------------|

|---------------------------------------------|
|---------------------------------------------|
|-121212121212-141414141414-1717171717171717--|
|-x-x-x-x-x-x--x-x-x-x-x-x--x-x-x-x-x-x-x-x---|
|-101010101010-121212121212-1515151515151515--|
|---------------------------------------------|

E5
|-------------------|
|-------------------|
|-------------------|
|-2-----------------|
|-2-----------------|
|-0-----------------|

Structure
Intro
Verse 
Chorus x2
Verse
Chorus x2
Bridge x2
Bridge 2/Solo x2
Chorus x2
E5
-----------------------------------------------------------------------------
-----------------------------------------------------------------------------
                    Atheist Anthem (Leftover Crack Cover)
Intro
|-------------------------------------|
|-------------------------------------|
|-------------------------------------|
|-55555555-44444444-22222222-33333333-| x5
|-------------------------------------|
|-------------------------------------|
  ........ ........ ........ ........

|-------------------------------------|
|-------------------------------------|
|----------------------------------3--|
|-55555555-44444444-22222222-3-----3--|
|-------------------------------------|
|-------------------------------------|
  ........ ........ ........

Verse
|---------------------|---------------------|
|---------------------|---------------------|
|----------------5555-|---------------------|
|-5555-4444-2222-5555-|-5555-4444-2222-3333-|
|-5555-4444-2222-3333-|-5555-4444-2222-3333-|
|-3333-2222-0000------|-3333-2222-0000-1111-|

Chorus
|------------------|
|------------------|
|-12---11--9---5---| 
|-x----x---x---x---|
|-10---9---7---3---|
|------------------|

Pre Bridge
|-------------|
|-------------|
|-------5--7--|
|-5--2--5--7--|
|-5--2--3--5--|
|-3--0--------|

|--------x2---------------|-----------|
|-------------------------|-----------|
|-1212121414141212121111--|-9-------5-|
|-x-x-x-x-x-x-x-x-x-x-x---|-x-------x-|
|-1010101212121010109-9---|-7-------3-|
|-------------------------|-----------|

Bridge
|------------------------------------------------------|
|------------------------------------------------------|
|-121212121212-141414141414-121212121212-141414141414--|
|-x-x-x-x-x-x--x-x-x-x-x-x--x-x-x-x-x-x--x-x-x-x-x-x---|
|-101010101010-121212121212-101010101010-121212121212--|
|------------------------------------------------------|

|---------------------------------------------------------------|
|---------------------------------------------------------------|
|-121212121212-141414141414-16161616-17171717-16161616-14141414-|
|-x-x-x-x-x-x--x-x-x-x-x-x--x-x-x-x--x-x-x-x--x-x-x-x--x-x-x-x--|
|-101010101010-121212121212-14141414-15151515-14141414-12121212-|
|---------------------------------------------------------------|

Outro
|-------------------------------------|
|-------------------------------------|
|-------------------------------------|
|----------------------------55555555-|
|-55555555-44444444-22222222-33333333-|
|-33333333-22222222-00000000----------|
  ........ ........ ........ ........
G5
|-------------------|
|-------------------|
|-------------------|
|-5-----------------|
|-5-----------------|
|-3-----------------|

Structure
Intro 
Verse x2
Chorus x2
Verse x2
Chorus x2
Verse
Post Bridge
Bridge x2
Chorus x4
Outro x2
G5
-----------------------------------------------------------------------------
-----------------------------------------------------------------------------
Real Good CRS E.P, Looking Forward To Hearing More From This Band!

Rate, Comment and Most Importantly....
KEEP ROCKIN' DAT CRACK ROCK STEADY BEAT!
Tap to rate this tab
 
# A B C D E F G H I J K L M N O P Q R S T U V W X Y Z