Misc Unsigned Bands - Lee Sun Hee - Fox Rain tab

Song         : Fox Rain
Artist       : Lee Sun Hee
OST          : My Girlfriend is a gumiho

Transcribe by: Janrenz Rosales - Valenzuela City -                  (janzros_011496@yahoo.com)

Tabbed       : May 31, 2011

Note         :   bwahahhha,,its my first time to make a tab and i hope this is 
correct,,,,by the way the chords i used 
were from http://www.youtube.com/watch?v=ukLUhItM-Jw so special thanks to them :)


Intro:

                                  Am         D      G
E|-3--3---3---3---------3-2----------0-------2h3----3----|
B|-3---3---3---3--------3-3-------1---1------3------3----|
G|------0---0---0-----------------2----2-----------------|
D|-2-----------------------------------------0-----------|    repeat 2x
A|-3--------------------2-2-------0-----------------2----|
E|--------------------------------------------------3----|

Verse:    
E|-3333-------33322-----00----2----3---------------------|
B|-3333-------33333-----11----3----3---------------------|
G|----------------------22----2--------------------------|  just strum all 
D|-2222-----------------22----0--------------------------|    of these
A|-3333-------22222-----00---------2---------------------|
E|---------------------------------3---------------------|


Rerain:

E|-2----0----3---3---0---3----3----3--2------------------|
B|-3----2----3---3---1---3----3----3--3------------------|
G|-2----2----0---2---2---0---------2--2------------------|   
D|-4----2----2---0---2---0---------0--0------------------| strum again   
A|-2----0----3---2---0---2----2--------------------------|
E|-x----x----x---x---x---x----3--------------------------|



Chorus:

E|-3333-------33322-----00----2----3---------------------|
B|-3333-------33333-----11----3----3---------------------|
G|----------------------22----2--------------------------|   
D|-2222-----------------22----0--------------------------|     
A|-3333-------22222-----00---------2---------------------|
E|---------------------------------3---------------------|


repeat until fade :
                                  Am         D      G
E|-3--3---3---3---------3-2----------0-------2h3----3----|
B|-3---3---3---3--------3-3-------1---1------3------3----|
G|------0---0---0-----------------2----2-----------------|
D|-2-----------------------------------------0-----------|    
A|-3--------------------2-2-------0-----------------2----|
E|--------------------------------------------------3----|


that's it :)  again,for me this is what i think the guitarist used in the youtube 
video i said before,,,
please email me for any comments or suggestions,,thank you   :)
Tap to rate this tab
 
# A B C D E F G H I J K L M N O P Q R S T U V W X Y Z