Song name
# A B C D E F G H I J K L M N O P Q R S T U V W X Y Z

Misc Unsigned Bands - Kid Named Chicago - Fire Over La tab

-------------------------------------------------------------------------------
			     Fire Over LA - Kid Named Chicago
-------------------------------------------------------------------------------
Tabbed by: mishtermatt
Email: mr.matt.Villanueva@gmail.com

Tuning: Drop D

Rhythm Guitar:

(Intro/Chorus)
e|-----------------------------------------------------------------------------------------------|
B|-----------------------------------------------------------------------------------------------|
G|--------------------------------|---------(palm muted)------|----------------------------------|
D|-8-8-8-8-8-8-8-8-4-4-4-4-4-4-4-4-0-0-0--0-0-0---0-0-0--0-0-0-6-6-6-6/7-7/10-10\8---------------|
A|-8-8-8-8-8-8-8-8-4-4-4-4-4-4-4-4-0-0-0--0-0-0---0-0-0--0-0-0-6-6-6-6/7-7/10-10\8 (let it ring--|
D|-8-8-8-8-8-8-8-8-4-4-4-4-4-4-4-4-0-0-0--0-0-0---0-0-0--0-0-0-6-6-6-6/7-7/10-10\8---------------|


(Verse)
e|----------------------------------------------------|
B|----------------------------------------------------|
G|---------------------(x2)---------------------------|
D|-8--8--8-8-8--8--8--8-8-8--8--8--8-8-8--8--8--8-8-8-|
A|-8--8--8-8-8--8--8--8-8-8--8--8--8-8-8--8--8--8-8-8-|
D|-8--8--8-8-8--8--8--8-8-8--8--8--8-8-8--8--8--8-8-8-|

--------------------------------------------------------|
--------------------------------------------------------|
--------------------------------------------------------|
-4--4--4-4-4--4--4--4-4-4--1--1--1-1-1--3--3--3-3-3--8--|
-4--4--4-4-4--4--4--4-4-4--1--1--1-1-1--3--3--3-3-3--8--|
-4--4--4-4-4--4--4--4-4-4--1--1--1-1-1--3--3--3-3-3--8--|


(Prechorus)
e|---------------------------------------------------------------------------|
B|----------(let the last chord from the verse ring)-------------------------|
G|---------------------------------------------------------------------------|
D|-4---------------4--------(pick slide)-------------------------------------|
A|-4---------------4--------(pick slide)-------------------------------------|
D|-4---------------4--------(pick slide)-------------------------------------|







(Bridge )
e|---------------------------------------------------------------------------|
B|---------------------------------------------------------------------------|
G|---------------------------------(x6)--------------------------------------|
D|-8-8-6-6-8-8--8-8-6-6-8-8--4-4-3-3-4-4--4-4-3-3-4-4------------------------|
A|-8-8-6-6-8-8--8-8-6-6-8-8--4-4-3-3-4-4--4-4-3-3-4-4------------------------|
D|-8-8-6-6-8-8--8-8-6-6-8-8--4-4-3-3-4-4--4-4-3-3-4-4------------------------|

(Chorus II)
e|--------------------------------------------------------------------------------|
B|--------------------------------------------------------------------------------|
G|--1-1-------1--3--1----|-palm muted-|-------------------------------------------|
D|-3-3--3---3--3-------XX-0-0-0--0-0-0--0---6-6-6-6-7-7-10-10---------------------|
A|---------------------XX-0-0-0--0-0-0--0---6-6-6-6-7-7-10-10---------------------|
D|---------------------XX-0-0-0--0-0-0--0---6-6-6-6-7-7-10-10---------------------|

e|----------------------------------------------------------------------------------|
B|----------------------------------------------------------------------------------|
G|--------------------------------|---------(palm muted)------|---------------------|
D|-8-8-8-8-8-8-8-8-4-4-4-4-4-4-4-4-0-0-0--0-0-0---0-0-0--0-0-0-6-6-6-6/7-7/10-10\8--|
A|-8-8-8-8-8-8-8-8-4-4-4-4-4-4-4-4-0-0-0--0-0-0---0-0-0--0-0-0-6-6-6-6/7-7/10-10\8--|
D|-8-8-8-8-8-8-8-8-4-4-4-4-4-4-4-4-0-0-0--0-0-0---0-0-0--0-0-0-6-6-6-6/7-7/10-10\8--|


Lead Guitar:

(Intro/Chorus)
e|---------------------------------------------------------------------------|
B|----------------------4-4-6-6b7r6--6h7-7-6h7p4--------1-4-2----------------|
G|-3-3-3-5-5-6-6-5-6-6-6---------------------------1-1-1---------------------|
D|---------------------------------------------------------------------------|
A|---------------------------------------------------------------------------|
D|---------------------------------------------------------------------------|

(Verse)
e|-------------(x4)----------------------------------------------------------|
B|--1h2p1---1h2p1---1h2p1---1h2p1--2~----------------------------------------|
G|-3-----1-3-----1-3-----1-3-----1-------------------------------------------|
D|---------------------------------------------------------------------------|
A|---------------------------------------------------------------------------|
D|---------------------------------------------------------------------------|

(Alternate Verse)-This appears at around 1:38 in the recording,and is played along with 
the previously tabbed verse)
e|--------------------------------4------------------------------------------|
B|--4h6p4---4h6p4---4h6p4---4h6p4--------------------------------------------|
G|-6-----5-6-----5-6-----5-6-----5-------------------------------------------|
D|---------------------------------------------------------------------------|
A|---------------(x2)--------------------------------------------------------|
D|---------------------------------------------------------------------------|

(Prechorus)
e|---------------------------------------------------------------------------|
B|-2~--------------1-2-1-2-1-2-1-2-1-2-1-2-1-2-1-2---------------------------|
G|---------------------------------------------------------------------------|
D|---------------------------------------------------------------------------|
A|---------------------------------------------------------------------------|
D|---------------------------------------------------------------------------|

(Alternate Prechorus)
e|-4-4-4-4-4-4-4-4-----------------------------------------------------------|
B|-----------------1-2-1-2-1-2-1-2-1-2-1-2-1-2-1-2---------------------------|
G|---------------------------------------------------------------------------|
D|---------------------------------------------------------------------------|
A|---------------------------------------------------------------------------|
D|---------------------------------------------------------------------------|

(Bridge)
e|----------|----------------------------------------------------|-----------|
B|----------|----------------------------------------------------|-----------|
G|-11-11-11-|6-6-5-5-6-6--6-6-5-5-6-6--6-6-5-5-6-6--6-6-5-5-8-8-8|-----------|
D|----------|-----------------------(x3)-------------------------|-----------|
A|----------|----------------------------------------------------|-----------|
D|----------|----------------------------------------------------|-----------|

e|---------------------------------------------------------------------------|
B|---------------------------------------------------------------------------|
G|-10-10-8-8-10-10--10-10-8-8-10-10--10-10/13-13-10-10/13-13-----------------|
D|---------------------------------------------------------------------------|
A|---------------------------------------------------------------------------|
D|---------------------------------------------------------------------------|

e|---------------------------------------------------------------------------|
B|---------------------------------------------------------------------------|
G|-11-11-9-9-11-11--11-11-9-9-11-11-6-6-6-6-5-5-5-5-8-8-8-8-6-6-6-6----------|
D|---------------------------------------------------------------------------|
A|---------------------------------------------------------------------------|
D|---------------------------------------------------------------------------|

(Chorus II)
e|-14-14-14-14-14-14-14-14-14-14-14-14-14-14-14-14-14-14-14-14-14-14-14-14---|
B|---------------------------------------------------------------------------|
G|---------------------------------------------------------------------------|
D|---------------------------------------------------------------------------|
A|---------------------------------------------------------------------------|
D|---------------------------------------------------------------------------|

************************************

| /   slide up
| \   slide down
| h   hammer-on
| p   pull-off
| ~   vibrato
| +   harmonic
| x   Mute note
| b   Bend
| pb  Pre-bend
| br  Bend release
| pbr Pre-bend release
| brb Bend release bend

************************************
Tap to rate this tab
 
# A B C D E F G H I J K L M N O P Q R S T U V W X Y Z