Misc Unsigned Bands - Absolace - Resolved tab

Absolace
Resolved
Resolve[d]
2010

Drop D tuning; low to high: (D,A,D,G,B,A)


Intro (Vocal Distorted section)
0:00
E]-------------------------------------------------------[
B]-------------------------------------------------------[
G]-------------------------------------------------------[
D]-0-0-0---3--0-0-------------6/--0-0-0------------[5]---[
A]-0-0-0---3--0-0---3-5-3-5-3-6/--0-0-0---------[5]------[
D]-0-0-0---3--0-0---3-5-3-5-3-6/--0-0-0------[5]---------[
                   PM.........                NH........


During vocal distortion section (after 1st clean guitar part)
E]---------------------------------[
B]---------------------------------[
G]---------------------------------[
D]-0-0-0---3---0-0-------------6/--[
A]-0-0-0---3---0-0---3-5-3-5-3-6/--[
D]-0-0-0---3---0-0---3-5-3-5-3-6/--[
                   PM.........       

E]-----------------------------------------------[
B]-----------------------------------------------[
G]-----------------------------------------------[
D]--0-0-0--------------------------------[5]-----[
A]--0-0-0--------------[5]-----------------------[
D]--0-0-0---[5]-[5]-[5]-------[5]-[5]-[5]--------[ 
            NH...............................

Played after VD

E]----------------------------------------[   
B]----------------------------------------[   
G]----------------------------------------[   
D]-0-0--0---12-10---0--0-0-0--10-10-10-10-[   
A]-0-0--0---12-10---0--0-0-0--10-10-10-10-[ 
D]-0-0--0---12-10---0--0-0-0--10-10-10-10-[  
                                                        
E]------------------------------------------------------------[
B]------------------------------------------------------------[
G]------------------------------------------------------------[
D]--13--12-----0-0-0---------------------------------[5]------[
A]--13--12-----0-0-0--------------[5]-------------------------[
D]--13--12-----0-0-0--[5]-[5]-[5]---------[5]-[5]-[5]---------[
                      NH.....................................

THEN play:
E]-------------------------------------------------------[
B]-------------------------------------------------------[
G]-------------------------------------------------------[
D]-0-0--0---0-0--0---0-0-0-0-0-0---0-0--0----------------[
A]-0-0--0---0-0--0---0-0-0-0-0-0---0-0--0----------------[
D]-0-0--0---0-0--0---0-0-0-0-0-0---0-0--0----------------[

Softer bit [clean guitar, then played with distortion when drums come in]
E]-------------------------------------------------------[
B]-------------------------------------------------------[
G]-7--7-7-7-7---7--7--7-7-7-7---10-10101010-10-10101010--[
D]-7--7-7-7-7---7--7--7-7-7-7---10-10101010-10-10101010--[
A]-5--5-5-5-5---5--5--5-5-5-5---8--8-8-8-8--8--8-8-8-8---[
D]-------------------------------------------------------[
Not sure about the first chord :S


Breakdown:
3:56
E]------------------------------[
B]------------------------------[
G]------------------------------[
D]-0-0---0-0---0-0---0-0---0-0--[
A]-0-0---0-0---0-0---0-0---0-0--[
D]-0-0---0-0---0-0---0-0---0-0--[

Then
4:19
E]-------------------------------------[
B]-------------------------------------[
G]-------------------------------------[
D]-0-----------------------------------[
A]-0-----0-0-----0-0-0-----------------[
D]-0-----0-0-----0-0-0-------0--0-0----[

At 5:17 a new riff starts but i dont know that one yet lol. I just figured out the 
distorted chugging bits
Tap to rate this tab
 
# A B C D E F G H I J K L M N O P Q R S T U V W X Y Z