Misc Unsigned Bands - Anchoress - Cadillacs tab

Anchoress - Cadillacs - 00.52
Album - Set Sail
Listen to album here : http://anchoress.bandcamp.com/album/set-sail

Drop D

This song is not so much hard as it is fast.

This is the main riff.
Riff 1
A]----------------------------------]
B]----------------------------------]
G]----------------------------------]
D]-0-3-5--00-33--0xxxx--------------]
A]-0-3-5--00-33--0xxxx--------------]
D]-0-3-5--00-33--0xxxx--------------]

After each time of Riff 1 there is some noise/nuance.
   R1.1        R1.2           R1.3
E] --------[]---------[]-------------------|
B]--5****--[]---------[]-------------------|
G]--5****--[]--7777---[]-------------------|
D]--5****--[]--6666---[]---0xxxx-----------|
A]---------[]--5555---[]---0xxxx-----------|
D]---------[]---------[]---0xxxx-----------|
  2nd time   3rd Time      4th time....

Typically it goes in that order but do whatever you feel like. Just make it sound good.

Riff 2

Palm mute the crap out of that open D. After 4 measures hit that tasty discord.
E] ---------------------------[]------------|
B]----------------------------[]------------|
G]----------------------------[]--77777-----|
D]-0xxxxxxxxxxxxxxxxxxxxxxx---[]--66666-----|
A]-0xxxxxxxxxxxxxxxxxxxxxxx---[]--55555-----|
D]-0xxxxxxxxxxxxxxxxxxxxxxx---[]------------|


E] ---------------------------------------------------------------------|
B]----------------------------------------------------------------------|
G]----------------------------------------------------------------------|
D]-3-3xxxxxxxx--5xxxx----55555555----     > End of the verse 0.17-0.20--|
A]-3-3xxxxxxxx--5xxxx----55555555---------------------------------------|       easy enough.
D]-3-3xxxxxxxx--5xxxx----55555555---------------------------------------|


Riff 1 again 4x

KF Solo Man 5000 burns hole in the sun!

   Bend!
E] ----------[]------------^---------------|
B]--12~-12~~-[]------------6---------------|
G]--15~ 15~~-[]---7-7-5h7p0--7-5h7-77------|
D]-----------[]----------------------------|
A]-----------[]----------------------------|
D]-----------[]----------------------------|

E] ------------------------------------------------------------|
B]-------------------------------------------------------------|
G]-------------------------------------------------------------|
D]--5-5-5h7p5p0-3h5p3p0----------------------------------------|
A]----------------------3p0h3h5-5-3h5p3p0-8p0-5p0-3/5----------|
D]------------------------------------------------ ---0~~~-----|


E] ----7p0-5h7p5p0----------------------7p0-5h7p5p0------7p0-----10p0-----------|
B]-5p0-------------7p0-7h8p7p0h3p0---5p0--------------8p0---10p0----------------|
D]------------------------------------------------------------------------------|
A]------------------------------------------------------------------------------|
D]------------------------------------------------------------------------------|


E]--10h12--12-12p10p0------------0-------------------[]-17~~~~--12~~~~---[]-*
B]--------------------12p0-10h12---12-12-10h12-0-----[]-17~~~~--12~~~~---[]-*
G]---------------------------------------------------[]-17~~~~--12~~~~---[]-*
D]---------------------------------------------------[]------------------[]-*
A]---------------------------------------------------[]------------------[]-*
D]---------------------------------------------------[]------------------[]-*

Play riff 1 again and BOOM!

Anchoress website - http://anchoress.bandcamp.com/album/set-sail
Tap to rate this tab
 
# A B C D E F G H I J K L M N O P Q R S T U V W X Y Z