Song name
# A B C D E F G H I J K L M N O P Q R S T U V W X Y Z

Misc Unsigned Bands - Dodge Ram Advertissment - A Work Of Art tab

It's the song that is play in the advertissment of the dodge ram laramie longhorn. i'm 
not sure if it's exactly that but it sound close.



E--------------------------------------------10----0-----0--5--0-------------|
B--------------------------------------------10--------3----------1/3-1------|
G----------------------------------------------------------------------2-----|
D---------0---------------------------0------0--------------------------2-0--|
A-----3/5---5---------3--5-------3--5----------------------------------------|
D-0---------------3--------1/3----------0-/10--------------------------------|


E-------10------------2------2---------------------b7----7h5--5--------------|
B----10-10------------3------3------------------------------------------b8h6-|
G----11-11---------2-----2---------------------------------------------------|
D----12----------0--------0-----7--------------------------------------------|
A----0--------------------------7----------0--5-0-------------------0--------|
D-0--0---------------------0----7------5/7------------5-------0-/7-----------|


E-----------------------2----------------------------------------------------|
B-----------------------3-------------------3--------------------------------|
G-----------------------2-----2/5-2-0-------2--------------------------------|
D-----------------------0-------------2-0-0----------------------------------|
A-----3--5------3--5----0----------------------------------------------------|
D--/3-------3/5------0--0----------------------------------------------------|
Tap to rate this tab
 
# A B C D E F G H I J K L M N O P Q R S T U V W X Y Z