Song name
# A B C D E F G H I J K L M N O P Q R S T U V W X Y Z

Misc Unsigned Bands - Msu-cetd Band - Marching Exercises tab

Para to sa lahat ng taga-msu!!! kanta to ng school band natin, ti-nab ko lng kac la trip!! :)

e-1-1-1-1-1-1-3-1-1---1----1------|
b--3---3---3-----3-3-4--3-1-3-1---|
g-------------------------------3-|(2 times)
d---------------------------------|
a---------------------------------|
e---------------------------------|


e-1-1-6-6-1-3-5-6-3-1-6-6-5-3-5-6-3-8-|
b-------------------------------------|
g-------------------------------------|
d-------------------------------------|
a-------------------------------------|
e-------------------------------------|



e-1-1-6-6-1-3-5-6-3-1-----1---1------|
b---------------------3-4--3-1-3-1---|
g----------------------------------3-|
d------------------------------------|
a------------------------------------|
e------------------------------------|

(REPEAT ALL)


yun lng !!!!! :)
Tap to rate this tab
 
# A B C D E F G H I J K L M N O P Q R S T U V W X Y Z