Misc Unsigned Bands - David Illingworth - Charge Of The Labrador tab

-------------------------------------------------------------------------------
			     Charge of the Labrador Intro - David Illingworth
-------------------------------------------------------------------------------
Tabbed by:
Email:

Tuning: Standard


e|-------------5-7-5----------3-5------------5-7----5--4--3----------------|
B|-----------5------5-------3--------------5----5-----5--4--3--------------|
G|----------5--------6----3--------------5--------5----5--4--3--------X2---|
D|---------6------------4--------------6-----------------------------------|
A|-------------------------------------------------------------------------|
E|-------------------------------------------------------------------------|

e|------------5-7-5------7-9-7------9-11-9---------11-13-11-13-------------|
B|----------5------5----7-----7----9------9------11------------------------|
G|---------5--------6--8-------7--9--------10--11--------------------------|
D|--------6-----------8---------10-----------12----------------------------|
A|-------------------------------------------------------------------------|
E|-------------------------------------------------------------------------|

e|-------------5-7-5------7-9-7-------9-11-9-----------11-13-11------------|
B|-----------5------5----7-----7-----9--------9------11---------11---------|
G|----------5--------6--8-------7---9----------10--11--------------12------|
D|---------6-----------8----------10--------------12-----------------------|
A|-------------------------------------------------------------------------|
E|-------------------------------------------------------------------------|

e|-------------5-7-5-------7-9-7-------9-11-9------------11-13-11-13-------|
B|-----------5------5----7------7-----9--------9-------11------------------|
G|----------5--------6--8--------7---9----------10---11--------------------|
D|---------6-----------8-----------10--------------12----------------------|
A|-------------------------------------------------------------------------|
E|-------------------------------------------------------------------------|

e|-------------5-7-5------7-9-7-------9-11-9------------11-13------10-----10----10-----10----|
B|-----------5------5----7-----7-----9--------9-------11--------10-----10----10-----10-------|
G|----------5--------6--8-------7---9----------10--11---------10-----10----10----10----------|
D|---------6-----------8----------10--------------12-------------------------------------12--|
A|-------------------------------------------------------------------------------------------|
E|-------------------------------------------------------------------------------------------|
Tap to rate this tab
 
# A B C D E F G H I J K L M N O P Q R S T U V W X Y Z