Song name
# A B C D E F G H I J K L M N O P Q R S T U V W X Y Z

Misc Unsigned Bands - Birth Of A Tyrant - Confessions tab

Birth Of A Tyrant - Title

E|-----------------------------------------------------------------------------|
B|-----------------------------------------------------------------------------|
G|-----------------------------------------------------------------------------|
D|-000--00--00000------000--00--00000------000--00--00000------000--00--00000--|
A|-000--00--00000------000--00--00000------000--00--00000------000--00--00000--|
D|-000--00--00000------000--00--00000------000--00--00000------000--00--00000--|
   ...  ..  .....      ...  ..  .....      ...  ..  .....      ...  ..  .....

E|-----------------------------------------------------------------------------|
B|-----------------------------------------------------------------------------|
G|-----------------------------------------------------------------------------|
D|-000--00--00000------000--00--00000------000--00--00000------000--00--00000--|
A|-000--00--00000------000--00--00000------000--00--00000------000--00--00000--|
D|-000--00--00000------000--00--00000------000--00--00000------000--00--00000--|
   ...  ..  .....      ...  ..  .....      ...  ..  .....      ...  ..  .....
LET NOTES RING WHILE STILL PALM MUTED		FULLY MUTE

E|---------------------------------------------------------------|
B|---------------------------------------------------------------|
G|----10-10-10-----10-10-10----------10-10-10-----10-10-10-------|
D|-0--x--x--x---0--x--x--x---000-0---x--x--x---0--x--x--x---000--|
A|-0--8--8--8---0--8--8--8---000-0---8--8--8---0--8--8--8---000--|
D|-0------------0------------000-0-------------0------------000--|
                             ...                            ...

E|--------------------------------------------------------------------|
B|--------------------------------------------------------------------|
G|----10-10-10-----10-10-10-------------------------------------------|
D|-0--x--x--x---0--x--x--x---000---8-8-8-8-8-8-8-8---4-4-4-4-4-4-4-4--|
A|-0--8--8--8---0--8--8--8---000---8-8-8-8-8-8-8-8---4-4-4-4-4-4-4-4--|
D|-0------------0------------000---8-8-8-8-8-8-8-8---4-4-4-4-4-4-4-4--|
                             ...

E|---------------------------------------------------------------|
B|---------------------------------------------------------------|
G|----10-10-10-----10-10-10----------10-10-10-----10-10-10-------|
D|-0--x--x--x---0--x--x--x---000-0---x--x--x---0--x--x--x---000--|
A|-0--8--8--8---0--8--8--8---000-0---8--8--8---0--8--8--8---000--|
D|-0------------0------------000-0-------------0------------000--|
                             ...                            ...

E|---------------------------------------------------------------|
B|---------------------------------------------------------------|
G|----10-10-10-----10-10-10----------10-10-10-----10-10-10-------|
D|-0--x--x--x---0--x--x--x---000-0---x--x--x---0--x--x--x---000--|
A|-0--8--8--8---0--8--8--8---000-0---8--8--8---0--8--8--8---000--|
D|-0------------0------------000-0-------------0------------000--|
                             ...                            ...


E|--------------------------------------------------------------------|
B|--------------------------------------------------------------------|
G|--------------------------------------------------------------------|
D|-7-7-7-7-7-7-7-7-7-7-7-7-7-7-7-7---3-3-3-3-3-3-3-3-3-3-3-3-3-3-3-3--|
A|-7-7-7-7-7-7-7-7-7-7-7-7-7-7-7-7---3-3-3-3-3-3-3-3-3-3-3-3-3-3-3-3--|
D|-7-7-7-7-7-7-7-7-7-7-7-7-7-7-7-7---3-3-3-3-3-3-3-3-3-3-3-3-3-3-3-3--|


E|--------------------------------------------------------------------|
B|--------------------------------------------------------------------|
G|--------------------------------------------------------------------|
D|-5-5-5-5-5-5-5-5-5-5-5-5-5-5-5-5---5-5-5-5-5-5-5-5-5-5-5-5-5-5-5-5--|
A|-5-5-5-5-5-5-5-5-5-5-5-5-5-5-5-5---5-5-5-5-5-5-5-5-5-5-5-5-5-5-5-5--|
D|-5-5-5-5-5-5-5-5-5-5-5-5-5-5-5-5---5-5-5-5-5-5-5-5-5-5-5-5-5-5-5-5--|





E|--------------------------------------------------------------------|
B|--------------------------------------------------------------------|
G|--------------------------------------------------------------------|
D|-7-7-7-7-7-7-7-7-7-7-7-7-7-7-7-7---3-3-3-3-3-3-3-3-3-3-3-3-3-3-3-3--|
A|-7-7-7-7-7-7-7-7-7-7-7-7-7-7-7-7---3-3-3-3-3-3-3-3-3-3-3-3-3-3-3-3--|
D|-7-7-7-7-7-7-7-7-7-7-7-7-7-7-7-7---3-3-3-3-3-3-3-3-3-3-3-3-3-3-3-3--|


E|--------------------------------------------------------------------|
B|--------------------------------------------------------------------|
G|--------------------------------------------------------------------|
D|-5-5-5-5-5-5-5-5-5-5-5-5-5-5-5-5---5-5-5-5-5-5-5-5-5-5-5-5-5-5-5-5--|
A|-5-5-5-5-5-5-5-5-5-5-5-5-5-5-5-5---5-5-5-5-5-5-5-5-5-5-5-5-5-5-5-5--|
D|-5-5-5-5-5-5-5-5-5-5-5-5-5-5-5-5---5-5-5-5-5-5-5-5-5-5-5-5-5-5-5-5--|



E|---------------------------------------------------------------|
B|---------------------------------------------------------------|
G|----10-10-10-----10-10-10----------10-10-10-----10-10-10-------|
D|-0--x--x--x---0--x--x--x---000-0---x--x--x---0--x--x--x---000--|
A|-0--8--8--8---0--8--8--8---000-0---8--8--8---0--8--8--8---000--|
D|-0------------0------------000-0-------------0------------000--|
                             ...                            ...

E|--------------------------------------------------------------------|
B|--------------------------------------------------------------------|
G|----10-10-10-----10-10-10-------------------------------------------|
D|-0--x--x--x---0--x--x--x---000---8-8-8-8-8-8-8-8---4-4-4-4-4-4-4-4--|
A|-0--8--8--8---0--8--8--8---000---8-8-8-8-8-8-8-8---4-4-4-4-4-4-4-4--|
D|-0------------0------------000---8-8-8-8-8-8-8-8---4-4-4-4-4-4-4-4--|
                             ...

E|---------------------------------------------------------------|
B|---------------------------------------------------------------|
G|----10-10-10-----10-10-10----------10-10-10-----10-10-10-------|
D|-0--x--x--x---0--x--x--x---000-0---x--x--x---0--x--x--x---000--|
A|-0--8--8--8---0--8--8--8---000-0---8--8--8---0--8--8--8---000--|
D|-0------------0------------000-0-------------0------------000--|
                             ...                            ...

E|--------------------------------------------------------------------|
B|--------------------------------------------------------------------|
G|----10-10-10-----10-10-10-------------------------------------------|
D|-0--x--x--x---0--x--x--x---000---8-8-8-8-8-8-8-8---4-4-4-4-4-4-4-4--|
A|-0--8--8--8---0--8--8--8---000---8-8-8-8-8-8-8-8---4-4-4-4-4-4-4-4--|
D|-0------------0------------000---8-8-8-8-8-8-8-8---4-4-4-4-4-4-4-4--|
                             ...

E|--------------------------------------------------------------------|
B|--------------------------------------------------------------------|
G|--------------------------------------------------------------------|
D|-0-0-0-0-0-0-0-0-0-0-0-0-0-0-0-0---0-0-0-0-0-0-0-0-0-0-0-0-0-0-0-0--|
A|-0-0-0-0-0-0-0-0-0-0-0-0-0-0-0-0---0-0-0-0-0-0-0-0-0-0-0-0-0-0-0-0--|
D|-0-0-0-0-0-0-0-0-0-0-0-0-0-0-0-0---0-0-0-0-0-0-0-0-0-0-0-0-0-0-0-0--|
   . . . . . . . . . . . . . . . .   . . . . . . . . . . . . . . . .

E|---------------------------------------------------------------------|
B|---------------------------------------------------------------------|
G|---------------------------------------------------------------------|
D|-0-0-0-0-0-0-0-0-0-0-0-0-0-0-0-0---4-4-4-4-4-4-4-4-1-1-1-1-1-1-1-1---|
A|-0-0-0-0-0-0-0-0-0-0-0-0-0-0-0-0---4-4-4-4-4-4-4-4-1-1-1-1-1-1-1-1---|
D|-0-0-0-0-0-0-0-0-0-0-0-0-0-0-0-0---4-4-4-4-4-4-4-4-1-1-1-1-1-1-1-1---|
   . . . . . . . . . . . . . . . .   . . . . . . . . . . . . . . . .







E|--------------------------------------------------------------------|
B|--------------------------------------------------------------------|
G|--------------------------------------------------------------------|
D|-0-0-0-0-0-0-0-0-0-0-0-0-0-0-0-0---0-0-0-0-0-0-0-0-0-0-0-0-0-0-0-0--|
A|-0-0-0-0-0-0-0-0-0-0-0-0-0-0-0-0---0-0-0-0-0-0-0-0-0-0-0-0-0-0-0-0--|
D|-0-0-0-0-0-0-0-0-0-0-0-0-0-0-0-0---0-0-0-0-0-0-0-0-0-0-0-0-0-0-0-0--|
   . . . . . . . . . . . . . . . .   . . . . . . . . . . . . . . . .

E|--------------------------------------------------------------------|
B|--------------------------------------------------------------------|
G|--------------------------------------------------------------------|
D|-0-0-0-0-0-0-0-0-0-0-0-0-0-0-0-0---4-4-4-4-4-4-4-4-1-1-1-1-1-1-1-1--|
A|-0-0-0-0-0-0-0-0-0-0-0-0-0-0-0-0---4-4-4-4-4-4-4-4-1-1-1-1-1-1-1-1--|
D|-0-0-0-0-0-0-0-0-0-0-0-0-0-0-0-0---4-4-4-4-4-4-4-4-1-1-1-1-1-1-1-1--|
   . . . . . . . . . . . . . . . .   . . . . . . . . . . . . . . . .

E|----
B|----
G|----
D|-0--
A|-0--
D|-0--


E|----------------5--10--5-----------------------------5--10--5--------------|
B|-------------6------------6-----------------------6------------6-----------|
G|----------7------------------7-----------------7------------------7--------|
D|-------7------------------------7-----------7------------------------7-----|
A|-5--8------------------------------8--5--8------------------------------5--|
D|---------------------------------------------------------------------------|


E|----------------4--9--4-----------------------------4--9--4---------------|
B|-------------5-----------5-----------------------5-----------5------------|
G|----------6-----------------6-----------------6-----------------6---------|
D|-------6-----------------------6-----------6-----------------------6------|
A|-4--7-----------------------------7--4--7-----------------------------4---|
D|--------------------------------------------------------------------------|

E|----------------5--10--5-----------------------------5--10--5--------------|
B|-------------6------------6-----------------------6------------6-----------|
G|----------7------------------7-----------------7------------------7--------|
D|-------7------------------------7-----------7------------------------7-----|
A|-5--8------------------------------8--5--8------------------------------5--|
D|---------------------------------------------------------------------------|


E|----------------4--9--4-----------------------------4--9--4---------------|
B|-------------5-----------5-----------------------5-----------5------------|
G|----------6-----------------6-----------------6-----------------6---------|
D|-------6-----------------------6-----------6-----------------------6------|
A|-4--7-----------------------------7--4--7-----------------------------4---|
D|--------------------------------------------------------------------------|

E|---------------------------------------------------------------|
B|---------------------------------------------------------------|
G|----10-10-10-----10-10-10----------10-10-10-----10-10-10-------|
D|-0--x--x--x---0--x--x--x---000-0---x--x--x---0--x--x--x---000--|
A|-0--8--8--8---0--8--8--8---000-0---8--8--8---0--8--8--8---000--|
D|-0------------0------------000-0-------------0------------000--|
                             ...                            ...

E|--------------------------------------------------------------------|
B|--------------------------------------------------------------------|
G|----10-10-10-----10-10-10-------------------------------------------|
D|-0--x--x--x---0--x--x--x---000---8-8-8-8-8-8-8-8---4-4-4-4-4-4-4-4--|
A|-0--8--8--8---0--8--8--8---000---8-8-8-8-8-8-8-8---4-4-4-4-4-4-4-4--|
D|-0------------0------------000---8-8-8-8-8-8-8-8---4-4-4-4-4-4-4-4--|
                             ...


E|---------------------------------------------------------------|
B|---------------------------------------------------------------|
G|----10-10-10-----10-10-10----------10-10-10-----10-10-10-------|
D|-0--x--x--x---0--x--x--x---000-0---x--x--x---0--x--x--x---000--|
A|-0--8--8--8---0--8--8--8---000-0---8--8--8---0--8--8--8---000--|
D|-0------------0------------000-0-------------0------------000--|
                             ...                            ...

E|---------------------------------------------------------------|
B|---------------------------------------------------------------|
G|----10-10-10-----10-10-10----------10-10-10-----10-10-10-------|
D|-0--x--x--x---0--x--x--x---000-0---x--x--x---0--x--x--x---000--|
A|-0--8--8--8---0--8--8--8---000-0---8--8--8---0--8--8--8---000--|
D|-0------------0------------000-0-------------0------------000--|
                             ...                            ...

E|--------------------------------------------------------------------|
B|--------------------------------------------------------------------|
G|--------------------------------------------------------------------|
D|-7-7-7-7-7-7-7-7-7-7-7-7-7-7-7-7---3-3-3-3-3-3-3-3-3-3-3-3-3-3-3-3--|
A|-7-7-7-7-7-7-7-7-7-7-7-7-7-7-7-7---3-3-3-3-3-3-3-3-3-3-3-3-3-3-3-3--|
D|-7-7-7-7-7-7-7-7-7-7-7-7-7-7-7-7---3-3-3-3-3-3-3-3-3-3-3-3-3-3-3-3--|


E|--------------------------------------------------------------------|
B|--------------------------------------------------------------------|
G|--------------------------------------------------------------------|
D|-5-5-5-5-5-5-5-5-5-5-5-5-5-5-5-5---5-5-5-5-5-5-5-5-5-5-5-5-5-5-5-5--|
A|-5-5-5-5-5-5-5-5-5-5-5-5-5-5-5-5---5-5-5-5-5-5-5-5-5-5-5-5-5-5-5-5--|
D|-5-5-5-5-5-5-5-5-5-5-5-5-5-5-5-5---5-5-5-5-5-5-5-5-5-5-5-5-5-5-5-5--|


E|--------------------------------------------------------------------|
B|--------------------------------------------------------------------|
G|--------------------------------------------------------------------|
D|-7-7-7-7-7-7-7-7-7-7-7-7-7-7-7-7---3-3-3-3-3-3-3-3-3-3-3-3-3-3-3-3--|
A|-7-7-7-7-7-7-7-7-7-7-7-7-7-7-7-7---3-3-3-3-3-3-3-3-3-3-3-3-3-3-3-3--|
D|-7-7-7-7-7-7-7-7-7-7-7-7-7-7-7-7---3-3-3-3-3-3-3-3-3-3-3-3-3-3-3-3--|


E|--------------------------------------------------------------------|
B|--------------------------------------------------------------------|
G|--------------------------------------------------------------------|
D|-5-5-5-5-5-5-5-5-5-5-5-5-5-5-5-5---5-5-5-5-5-5-5-5-5-5-5-5-5-5-5-5--|
A|-5-5-5-5-5-5-5-5-5-5-5-5-5-5-5-5---5-5-5-5-5-5-5-5-5-5-5-5-5-5-5-5--|
D|-5-5-5-5-5-5-5-5-5-5-5-5-5-5-5-5---5-5-5-5-5-5-5-5-5-5-5-5-5-5-5-5--|


E|---------------------------------------------------------------|
B|---------------------------------------------------------------|
G|----10-10-10-----10-10-10----------10-10-10-----10-10-10-------|
D|-0--x--x--x---0--x--x--x---000-0---x--x--x---0--x--x--x---000--|
A|-0--8--8--8---0--8--8--8---000-0---8--8--8---0--8--8--8---000--|
D|-0------------0------------000-0-------------0------------000--|
                             ...                            ...

E|--------------------------------------------------------------------|
B|--------------------------------------------------------------------|
G|----10-10-10-----10-10-10-------------------------------------------|
D|-0--x--x--x---0--x--x--x---000---8-8-8-8-8-8-8-8---4-4-4-4-4-4-4-4--|
A|-0--8--8--8---0--8--8--8---000---8-8-8-8-8-8-8-8---4-4-4-4-4-4-4-4--|
D|-0------------0------------000---8-8-8-8-8-8-8-8---4-4-4-4-4-4-4-4--|
                             ...

E|---------------------------------------------------------------|
B|---------------------------------------------------------------|
G|----10-10-10-----10-10-10----------10-10-10-----10-10-10-------|
D|-0--x--x--x---0--x--x--x---000-0---x--x--x---0--x--x--x---000--|
A|-0--8--8--8---0--8--8--8---000-0---8--8--8---0--8--8--8---000--|
D|-0------------0------------000-0-------------0------------000--|
                             ...                            ...
E|--------------------------------------------------------------------|
B|--------------------------------------------------------------------|
G|----10-10-10-----10-10-10-------------------------------------------|
D|-0--x--x--x---0--x--x--x---000---8-8-8-8-8-8-8-8---4-4-4-4-4-4-4-4--|
A|-0--8--8--8---0--8--8--8---000---8-8-8-8-8-8-8-8---4-4-4-4-4-4-4-4--|
D|-0------------0------------000---8-8-8-8-8-8-8-8---4-4-4-4-4-4-4-4--|
                             ...

E|---------------------------------------------------------------|
B|---------------------------------------------------------------|
G|---------------------------------------------------------------|
D|-0-0-0---0-0-0---00-00-0---0------0-0-0---0-0-0---00-00-0---0-|
A|-0-0-0---0-0-0---00-00-0---0------0-0-0---0-0-0---00-00-0---0-|
D|-1-1-1---1-1-1---11-11-1---1------1-1-1---1-1-1---11-11-1---1--|
   . . .   . . .   .. .. .   .      . . .   . . .   .. .. .   .

E|---------------------------------------------------------------|
B|---------------------------------------------------------------|
G|---------------------------------------------------------------|
D|-0-0-0---0-0-0---00-00-0---0------0-0-0---0-0-0---00-00-0---0-|
A|-0-0-0---0-0-0---00-00-0---0------0-0-0---0-0-0---00-00-0---0-|
D|-1-1-1---1-1-1---11-11-1---1------1-1-1---1-1-1---11-11-1---1--|
   . . .   . . .   .. .. .   .      . . .   . . .   .. .. .   .

E|---------------------------------------------------------------|
B|---------------------------------------------------------------|
G|---------------------------------------------------------------|
D|-0-0-0---0-0-0---00-00-0---0------0-0-0---0-0-0---00-00-0---0-|
A|-0-0-0---0-0-0---00-00-0---0------0-0-0---0-0-0---00-00-0---0-|
D|-0-0-0---0-0-0---00-00-0---0------0-0-0---0-0-0---00-00-0---0--|
   . . .   . . .   .. .. .   .      . . .   . . .   .. .. .   .

E|---------------------------------------------------------------|
B|---------------------------------------------------------------|
G|---------------------------------------------------------------|
D|-0-0-0---0-0-0---00-00-0---0------0-0-0---0-0-0---00-00-0---0-|
A|-0-0-0---0-0-0---00-00-0---0------0-0-0---0-0-0---00-00-0---0-|
D|-0-0-0---0-0-0---00-00-0---0------0-0-0---0-0-0---00-00-0---0--|
   . . .   . . .   .. .. .   .      . . .   . . .   .. .. .   .

E|----
B|----
G|----
D|-0--
A|-0--
D|-0--
Tap to rate this tab
 
# A B C D E F G H I J K L M N O P Q R S T U V W X Y Z