Misc Unsigned Bands - Vicious Trust - The Begining tab

      

      This song is an instrumental song whit two guitars only. It will be   
      upploaded on Youtube soon :)
      I've made this song my self, i am a member of Vicious Trust. Check out
      our My Space :D 

      http://www.myspace.com/#!/563337161

      Song: The begining
      Band: Vicious Trust

      Tabbed by: obbeguitar
      Email: oscarberglund18@hotmail.com
 
      Tuning: Drop D 
              DADGBE

      Guitar 1 (Part 1)

      E|--------------------------------------------------------------|
      B|--------------------------------------------------------------|
      G|----3-2----7-5----3-2----7-5----3-2----7-5----3-2----7-5h7s8--| 8X
      D|-------3------7------3------7------3------7------3------------|
      A|--------------------------------------------------------------|
      D|--0r-----0r-----0r-----0r-----0r-----0r-----0r-----0r---------|


       Guitar 2 (part 1)
       Jumps in at the fifth time when Guitar 1 is playing his fifth.. 

    |-----------------------------------------------------------|
    | E|-------------------------------------------|            |
    | B|-------------------------------------------|            |
    | G|----10-9s7---14-12s10---10-9s7---14-12s10--|            |
    | D|-------------------------------------------|            |
    | A|-------------------------------------------|            |
    | D|--0r-------0r---------0r-------0r----------|            |  
    |                                                           |4X
    | E|----------------------------------------------|         |
    | B|----------------------------------------------|         | 
    | G|----10-9s7---14-12s10---10-9s7---14-12h14s15--|         |
    | D|----------------------------------------------|         |
    | A|----------------------------------------------|         |
    | D|--0r-------0r---------0r-------0r-------------|         | 
    |-----------------------------------------------------------|


      Guitar 1 (part 2 A)

      E|---------------------------------------------------|
      B|---------------------------------------------------|
      G|----7----5----3----2--3----7----5----3----2h3-2h3--|   4X
      D|-----0r---0r---0r---0r-0r---0r---0r---0r-----------|
      A|---------------------------------------------------|
      D|--0r---0r---0r---0r------0r---0r---0r---0r---------|


      Guitar 2 (part 2 A)

      E|--------------------------------------------------------|
      B|--------------------------------------------------------|
      G|----14----12----10----9--10----14----12----10--9h10-9h10|   4X
      D|------0r----0r----0r---0r--0r----0r----0r----0r---------|
      A|--------------------------------------------------------|
      D|--0r----0r----0r----0r-------0r----0r----0r-------------|
       
      Guitar 1 (part 2 B)
      
      E|-------------------------------------------------------|
      B|-------------------------------------------------------|
      G|----7----8----10----8--7----5----3----2--3--2----------|   4X
      D|-----0r---0r----0r---0r-0r---0r---0r---0r-0r-----------|
      A|-------------------------------------------------------|
      D|--0r---0r---0r----0r------0r---0r---0r-------0-3-0-0r--|

      Guitar 2 (part 2 B)

      E|--------------------------------------------------------------|
      B|--------------------------------------------------------------|
      G|----14----15----17----15--14----12----10----9--10--9----------|  4X
      D|------0r----0r----0r----0r--0r----0r----0r---0r--0r-----------|
      A|--------------------------------------------------------------|
      D|--0r----0r----0r----0r--------0r----0r----0r--------0-3-0-0r--|

       Guitar 1 (Part 3/Outro)
  
      E|---------------------------------------------------|
      B|---------------------------------------------------|
      G|----7----5----3----2--3----7----5----3----2h3-2h3--|  4X
      D|-----0r---0r---0r---0r-0r---0r---0r---0r-----------|
      A|---------------------------------------------------|
      D|--0r---0r---0r---0r------0r---0r---0r---0r---------|
        
      This is played the fifth after the fourth time with Guitar 1.. 

      E|---------------------------------------------------|
      B|---------------------------------------------------|        
      G|----7-----5------3-------2--------0r---------0r----|
      D|-----0r----0r-----0r------0r--------0r---------0r--|   
      A|---------------------------------------------------|
      D|--0r----0r-----0r------0r-------0r--------0r-------|

      ------------------------------|
      ------------------------------|
      -------0r-------------0r------|
      ---------0r-------------0r----|
      ------------------------------|
      --0r------------0r----------0r|

      Guitar 2 (Part 3/Outro)

      E|------------------------------------------------------------|
      B|------------------------------------------------------------|
      G|----14----12----10----9--10----14----12----10----9h10-9h10--|  4X
      D|------0r----0r----0r---0r--0r----0r----0r----0r-------------|
      A|------------------------------------------------------------|
      D|--0r----0r----0r----0r-------0r----0r----0r----0r-----------|
 
      This is played the fifth after the fourth time with Guitar 2..

      E|-------------------------------------------------|
      B|-------------------------------------------------|
      G|----14----12-----10------9--------7---------7----|
      D|------0r----0r------------0r-------0r--------0r--| 
      A|-------------------------------------------------|           
      D|--0r----0r-----0r------0r-------0r--------0r-----|

      E|--------------------------------|
      B|--------------------------------|
      G|------7----------7--------------|
      D|-------0r---------0r------------|
      A|--------------------------------|
      D|----0r---------0r-----------0r--|


      |r = ring
      |h = hammer on
      |s = slide

      Thanks for dropping by my tab :D
Tap to rate this tab
 
# A B C D E F G H I J K L M N O P Q R S T U V W X Y Z