Song name
# A B C D E F G H I J K L M N O P Q R S T U V W X Y Z

Misc Unsigned Bands - Foxbite - Brave New World tab

Tabs to Brave New World by the band Foxbite.
Tabbed by Kyle, 100% accurate.

Intro 

e|-------------------------------------------------------------------------|
B|-------------------------------------------------------------------------|
G|-------------------------------------------------------------------------|
D|--2-----------------------------------------------------------------2----|
A|--2--------7--5-4----7---7---9------------14---13-12------12----12--2----|
E|--0--3--4----------4---5-----7---7--10-11--------------15----14-----0----|
PM     -  -          - - - -          -  -                -  -  -  -  


e|------------------------------------------------------------------------|
B|------------------------------------------------------------------------|
G|------------------------------------------------------------------------|
D|--------------------------------------14--------------------------------|
A|-----------7--5-4----7---7---9---9-9--14 (x8)---------------------------|
E|--0--3--4----------4---5-----7---7-7--12--------------------------------|
PM  -  -  -          - - - -         



Repeat twice to verse, ending on E5 before lyrics:
Hey! Well I won't leave this place, go make a case, for what you,
Say! Come down with iron will, today's the day...

After lyrics, repeat riff one into pre-chorus.

Pre-chorus:


e|----------------------------------------------------------------------|
B|----------------------------------------------------------------------|
G|----------------------------------------------------------------------|
D|--9-9-9--x-x-5--5-5-5--x-x--9-x-5-x-2--2--2-2-------------------------|
A|--9-9-9--x-x-5--5-5-5--x-x--9-x-5-x-2--2--2-2-------------------------|
E|--7-7-7--x-x-3--3-3-3--x-x--7-x-3-x-0--0--0-0-------------------------|

e|--------------------------------------------------------------------|
B|--------------------------------------------------------------------|
G|--------------------------------------------------------------------|
D|--9-9-9--x-x-5--5-5-5--2---4---5---6--------------------------------|
A|--9-9-9--x-x-5--5-5-5--2---4---5---6--------------------------------|
E|--7-7-7--x-x-3--3-3-3--0---2---3---4--------------------------------|

e|----------------------------------------------------------------------|
B|----------------------------------------------------------------------|
G|----------------------------------------------------------------------|
D|--9-9-9--x-x-5--5-5-5--x-x--9-x-5-x-2---------------------------------|
A|--9-9-9--x-x-5--5-5-5--x-x--9-x-5-x-2---------------------------------|
E|--7-7-7--x-x-3--3-3-3--x-x--7-x-3-x-0---------------------------------|


e|------------------------------------------------------------------|
B|------------------------------------------------------------------|
G|------------------------13----------------------------------------|
D|--9-9-9--x-x-5--5-5-5---14----------------------------------------|
A|--9-9-9--x-x-5--5-5-5---14(x16)-----------------------------------|
E|--7-7-7--x-x-3--3-3-3---12----------------------------------------|

It's either non-friends, 
Or no friends at all, 
Trying to find the time, to realize, 
That I don't know you, 
But I know unity, 
Looks like our goal, is outta reach.

Chorus:

e|-------------------------14-14-14-x-x--12-12-12-12---------------------|
B|-9-9-9-x-x-9--9--9-9-----13-13-13-x-x--13-13-13-13---------------------|
G|-9-9-9-x-x-8--8--8-8-----12-12-12-x-x--14-14-14-14---------------------|
D|-9-9-9-x-x-9--9--9-9---------------------------------------------------|
A|-----------------------------------------------------------------------|
E|-----------------------------------------------------------------------|

e|-----------------------------------------------------------------------|
B|-9-9-9-x-x-9--9--9-9---------------------------------------------------|
G|-9-9-9-x-x-8--8--8-8----14---------------------------------------------|
D|-9-9-9-x-x-9--9--9-9----14(x8)-----------------------------------------|
A|------------------------12---------------------------------------------|
E|-----------------------------------------------------------------------|


Repeat whole thing twice to...

e|----------------------------|
B|-9-9-9-9--8-----------------|
G|-9-9-9-9--9-----------------|
D|-9-9-9-9--10----------------|
A|----------------------------|
E|----------------------------|

Which is also repeated twice, and into the intro riff, but halved.

Then another verse. 

Who, who do you want to know? Are you friend or foe?
No, money is such a whore, so give me more.

Pre-chorus.

It's either your friends...

Repeat Chorus, to chorus end (variation).

e|----------------------------|
B|-9-9-9-9--8-----------------|
G|-9-9-9-9--9-----------------|
D|-9-9-9-9--10----------------|
A|----------------------------|
E|----------------------------|

e|--------------------------------|
B|-9-9-9-9--8---10--10------------|
G|-9-9-9-9--9---11--10------------|
D|-9-9-9-9--10--12--10------------|
A|--------------------------------|
E|--------------------------------|





Tap to rate this tab
 
# A B C D E F G H I J K L M N O P Q R S T U V W X Y Z