Misc Unsigned Bands - Life On Repeat - Party In The Usa tab

-------------------------------------------------------------------------------
			Party In The USA – Life On Repeat
-------------------------------------------------------------------------------
Tabbed by: Dominic Bernarte
Email: orange_bite_burger@yahoo.com
Tuning:Drop C (CGCFAD)

*NOTE TO READER/S:
-JUST FIGURE OUT THE PALM MUTES ON YOUR OWN.THEY’RE JUST EASY.
-INTRO COMING SOON.JUST WAIT.
-TRANSCRIBED BY EAR.
INTRO: COMING SOON! (Clean)x3
D|---------------------------------------------------------------------------|
A|---------------------------------------------------------------------------|
F|---------------------------------------------------------------------------|
C|---------------------------------------------------------------------------|
G|---------------------------------------------------------------------------|
C|---------------------------------------------------------------------------|

VERSE:
(Distortion)*PALM-MUTE*
GUITAR 1

Jumped in the cab, here I am for the first time
D|---------------------------------------------------------------------------|
A|---------------------------------------------------------------------------|
F|---------------------------------------------------------------------------|
C|---------------------------------------------------------------------------|
G|12\--3333333333----777777777----0000000000000------------------------------|
C|12\--3333333333----777777777----0000000000000------------------------------|
       

GUITAR 2
*TAPPING*
Enters at:
My tummy's turnin' and I'm feelin' kinda homesick
D|---------------------------------------------------------------------------|
A|---------------------------------------------------------------------------|
F|-------------------------------------12-17--12-17--12-17--12-17------------|
C|--17-10--17-10--17-10--17-10-----------------------------------------------|
G|---------------------------------------------------------------------------|
C|---------------------------------------------------------------------------|

D|-----------------------------------12h13p12---------10---------------------|
A|----------------------------------------------12-14----12------------------|
F|--------------------------------------------14-----------------------------|
C|--17-10--17-10--17-10--17-10-----------------------------------------------|
G|---------------------------------------------------------------------------|
C|---------------------------------------------------------------------------|

PAUSE at: “and the Jay-z song was on….”
CHORUS: (GUITAR 1) (REPEAT SEVERAL TIMES)
D|---------------------------------------------------------------------------|
A|---------------------------------------------------------------------------|
F|---------------------------------------------------------------------------|
C|---3~-------7~---------0~--------------------------------------------------|
G|---3~-------7~---------0~--------------------------------------------------|
C|---3~-------7~---------0~--------------------------------------------------|

(GUITAR 2) (ALTERNATE)
So I put my hands up…
D|-----------------------------3----------------3----------------------------|
A|---------------------------6---------------6-------------------------------|
F|---------------------------------------------------------------------------|
C|---3~-------7~---------0~--------------------------------------------------|
G|---3~-------7~---------0~--------------------------------------------------|
C|---3~-------7~---------0~---------0-0--0-----------------------------------|
					       
Noddin’ my head like yeah…
D|------------------------------12--x-x--10----------------------------------|
A|------------------------------12—-x-x--10----------------------------------|
F|---------------------------------------------------------------------------|
C|---3~-------7~---------0~--------------------------------------------------|
G|---3~-------7~---------0~--------------------------------------------------|
C|---3~-------7~---------0~--------------------------------------------------|

Got my hands up..
D|-----------------------------3----------------3----------------------------|
A|---------------------------6---------------6-------------------------------|
F|---------------------------------------------------------------------------|
C|---3~-------7~---------0~--------------------------------------------------|
G|---3~-------7~---------0~--------------------------------------------------|
C|---3~-------7~---------0~---------0-0--0-----------------------------------|
					       
Yeaah! It’s a party in the USA…
D|---------------------------------------------------------------------------|
A|---------------------------------------------------------------------------|
F|---------------------------------------------------------------------------|
C|---3~-------7~---------0~--------------------------------------------------|
G|---3~-------7~---------0~--------------------------------------------------|
C|---3~-------7~---------0~--------------------------------------------------|

Then: 
Play Intro Riff.
VERSE 2: (semi-metal part)
GUITAR  1 and 2
Like Who’s that chick that’s rockin’kicks….
D|---------------------------------------------------------------------------|
A|---------------------------------------------------------------------------|
F|---------------------------------------------------------------------------|
C|--\------------------------------------------------------------------------|
G|--\----3-5---1-3----------3h5p3h5p3p0--------------------------------------|
C|--\---3-----0-----1-3-5--------------------000--00-0-0-0000000-------------|
						
GUITAR  1 (x4)
So hard with my girls not around me……..
PALM MUTED!
D|---------------------------------------------------------------------------|
A|---------------------------------------------------------------------------|
F|---------------------------------------------------------------------------|
C|---------------------------------------------------------------------------|
G|12\--3333333333----777777777----0000000000000------------------------------|
C|12\--3333333333----777777777----0000000000000------------------------------|
       

GUITAR 2 enters at:


*TAPPING*
Enters at:
So hard with my girls not around me
D|---------------------------------------------------------------------------|
A|---------------------------------------------------------------------------|
F|-------------------------------------12-17--12-17--12-17--12-17------------|
C|--17-10--17-10--17-10--17-10-----------------------------------------------|
G|---------------------------------------------------------------------------|
C|---------------------------------------------------------------------------|

D|-----------------------------------12h13p12---------10---------------------|
A|----------------------------------------------12-14----12------------------|
F|--------------------------------------------14-----------------------------|
C|--17-10--17-10--17-10--17-10-----------------------------------------------|
G|---------------------------------------------------------------------------|
C|---------------------------------------------------------------------------|

D|---------------------------------------------------------------------------|
A|---------------------------------------------------------------------------|
F|-------------------------------------12-17--12-17--12-17--12-17------------|
C|--17-10--17-10--17-10--17-10-----------------------------------------------|
G|---------------------------------------------------------------------------|
C|---------------------------------------------------------------------------|

D|-----------------------------------12h13p12---------10---------------------|
A|----------------------------------------------12-14----12------------------|
F|--------------------------------------------14-----------------------------|
C|--17-10--17-10--17-10--17-10-----------------------------------------------|
G|---------------------------------------------------------------------------|
C|---------------------------------------------------------------------------|

*PAUSE*at:  and the “Britney song was on………”
REPEAT CHORUS

Then:
BRIDGE: BOTH GUITARS ENTER AT:
Something stops me every time, every time………
D|---------------------------------------------------------------------------|
A|---------------------------------------------------------------------------|
F|---3~----------------------------------------------------------------------|
C|---2~----------------------------------------------------------------------|
G|---3~----------------------------------------------------------------------|
C|---1~-----0000-0000-00000000-----------------------------------------------|	          
The DJ plays my song and I feel alright…

D|---------------------------------------------------------------------------|
A|---------------------------------------------------------------------------|
F|---3~------------------------5~--------------------------------------------|
C|---3~------------------------5~--------------------------------------------|
G|---1~-----1111--------333----3~--------------------------------------------|
C|---------------------------------------------------------------------------|

	
REPEAT CHORUS
*SEVERAL TIMES*
Yeaah! It’s a party in the USA…
D|---------------------------------------------------------------------------|
A|---------------------------------------------------------------------------|
F|---------------------------------------------------------------------------|
C|---3~-------7~-------------------------------------------------------------|
G|---3~-------7~-------------------------------------------------------------|
C|---3~-------7~---------000-00--000-0-0-00-00-------------------------------|
			            
*ENDING RIFF*

Yeaah! It’s a party in the USA!!

D|---------------------------------------------------------------------------|
A|---------------------------------------------------------------------------|
F|---------------------------------------------------------------------------|
C|---3~-------7~-------------------------------------------------------------|
G|---3~-------7~------3-5---1-3----------3h5p3h5p3p0-------------------------|
C|---3~-------7~-----3-----0-----1-3-5---------------------------------------|



Tap to rate this tab
 
# A B C D E F G H I J K L M N O P Q R S T U V W X Y Z