Song name
# A B C D E F G H I J K L M N O P Q R S T U V W X Y Z

Misc Unsigned Bands - Kills The Moment - Ive Got Nine Lives I Can Spare A Few tab

Kills The Moment - I've Got Nine Lives, I Can Spare A Few
Tabbed by: Brandon Cooper (Roxas6662)
Tuning: Drop D
Comments:
Not too difficult of a song, but some parts may be slightly off, (Lead at the end 
chorus), but I did it all by ear so give me credit lol.
Also, if you didn't know, this band broke up last year after they played Warped Tour 
'10. I may ask Andy how this is played if I ever see him
around Buffalo at a show or something, but I doubt I will anytime soon. =] Have fun playing!


INTRO-RIFF-x1---------------------vvv----CHORUS--x4----------------------
E||------------|------------------------------------------------------------|
B||------------|------------------------------------------------------------|
G||------------|------------------------------------------------------------|
D||--12--10----|----------------------------3-3-------5-5-5-5---------------|
A||----12--10--|--XX--0--0-0-0--0-0-0--0-0--1-1--3-3--3-3-3-3---------------|
D||------------|--XX--0--0-0-0--0-0-0--0-0-------3-3------------------------|

|||-------------------VERSE-1---WHOLE-THING-x2-------------------|
E||--------------------------------------------------------------|
B||--------------------------------------------------------------|
G||--------------------------------------------------------------|
D||-----7p0-3p0---7p0-3p0---7h8p7--------7p0-3p0--7p0-8p7--------|
A||--00---------0---------0------8/10-00---------0-------8p0-----|
D||--00---------0---------0-----------00---------0----------8/10-|

E||--------------------------------------------------------------|
B||--------------------------------------------------------------|
G||--------------------------------------------------------------|
D||-----7p0-3p0---7p0-3p0---7h8p7---------10--------------12-----|
A||--00---------0---------0------8/10---8---8-8-------10----10-10|
D||--00---------0---------0----------888-8------101010--10-------|

REPEAT CHORUS (WITHOUT INTRO RIFF)

BREAKDOWN (FAST)x4-------vvv----------|PLAY ON AFTER LAST ONE ONLY!
E||---------------------|-------------|
B||---------------------|-------------|
G||---------------------|-------------|
D||---------------------|-------------|
A||-000-000-000-000-00--|------3(h)---|
D||-000-000-000-000-00--|3-2-0--------|

BREAKDOWN (SLOWER)
E||----------------------------------------------------------------------|
B||----------------------------------------------------------------------|
G||----------------------------------------------------------------------|
D||----------------------------------------------------------------------|
A||--000-000-000-000--000-000-000-000--000-000-000-000--000-000-000-000--|
D||--000-000-000-000--000-000-000-000--000-000-000-000--000-000-000-000--|

I DON'T UNDERSTAND!
E||--------------------------------------------------------|
B||--------------------------------------------------------|
G||--------------------------------------------------------|
D||--3-------------3--------5----3-------------3--------5--|
A||--1--0--3--0----1--0--3--3----1--0--3--0----1--0--3--3--|
D||-----0--3--0-------0--3----------0--3--0-------0--3-----|

I HATE TO SAY THIS, BUT THERE'S NO WAY OUT!
E||-------------------|
B||-------------------|
G||-------------------|
D||-------------3(h)--|
A||-------------------|
D||--3-2222-1-0-------|

THERE'S, THERE'S NO WAY OUT! x2
E||----------------------------------------------------------|
B||----------------------------------------------------------|
G||----------------------------------------------------------|
D||----------------------------------------------------------|
A||--000-000-0-0-0--0-000-0-0-0--000-000-0-0-0--0-000-0-0-0--|
D||--000-000-0-0-0--0-000-0-0-0--000-000-0-0-0--0-000-0-0-0--|

DOOM CHORDS!
E||----------------------------------------------------------|
B||----------------------------------------------------------|
G||----------------------------------------------------------|
D||----------------------------------------------------------|
A||--000-000-0-0-0--0-000-0-0-0--000-000-0-0-0--0-000-0-0-0--|
D||--111-111-1-1-1--1-111-1-1-1--111-111-1-1-1--1-111-1-1-1--|

EEYAH!
E||----------------------------------------------------------|
B||----------------------------------------------------------|
G||----------------------------------------------------------|
D||----------------------------------------------------------|
A||--000-000-0-0-0--0-000-0-0-0--000-000-0-0-0--0-000-0-0-0--|
D||--000-000-0-0-0--0-000-0-0-0--000-000-0-0-0--0-000-0-0-0--|

BREAK
E||-------------------------------------------------------|
B||-------------------------------------------------------|
G||-------------------------------------------------------|
D||--3----------------------------------------------------|
A||--1------------------------0----------33333333---------|
D||---------------------------0----------33333333---------|

END CHORUS (RHYTHYM GUITAR) x7 (PATTERN'S UP TO YOU!)
E||---------------------------------------------------------|
B||---------------------------------------------------------|
G||---------------------------------------------------------|
D||--3-3-3-3-3----------------------------------------------|
A||--1-1-1-1-1----------------0-0-0-0-0---3-3-3-3-3---------|
D||---------------------------0-0-0-0-0---3-3-3-3-3---------|

END CHORUS (LEAD GUITAR)--vvv THIS PART x1--------|
E||--10-------------------10---10-12h13p12----10--|
B||------10------------------10------------10-----|
G||-------- 12-10-12------------------------------|
D||------------------12---------------------------|
A||-----------------------------------------------|
D||-----------------------------------------------|

END CHORUS 2 (LEAD GUITAR)--vvv THIS PART x2------|
E||--10-------------------10---10-12h13p12----10--|
B||------10----------10------10------------10-----|
G||-------- 12-10-12------------------------------|
D||-----------------------------------------------|
A||-----------------------------------------------|
D||-----------------------------------------------|

LEAD 2 (x4)
E||--------------------------------|
B||--------------------------------|
G||---------------------9h10p9-----|
D||---------7-7---7-7----------10--|
A||----7-10-----7-----7------------|
D||--0-----------------------------|

NASTY PART =] x6 (ADD ONE MORE HAMMER ON ON THE 6TH ONE)-{vvv#6 ONLY}
E||------------------------------------------------------|---------|
B||------------------------------------------------------|---------|
G||------------------------------------------------------|---------|
D||------------------------------------------------------|---------|
A||--1h4p1--1-1-1-1h4p1--1-1-1-1h4p1--1-1-1-1h4p1-0-0-0--|--1h4p1--|
D||--1h4p1--1-1-1-1h4p1--1-1-1-1h4p1--1-1-1-1h4p1-0-0-0--|--1h4p1--|

SLOW DIRTY RIFF
E||------------------------------------------|
B||------------------------------------------|
G||------------------------------------------|
D||------------------------------------------|
A||--1h4p1-----1h4p1-----1h4p1-----1h4p1-----|
D||--1h4p1-----1h4p1-----1h4p1-----1h4p1-----|

GET FILTHY! x2
E||----------------------------------------------------------|
B||----------------------------------------------------------|
G||----------------------------------------------------------|
D||----------------------------------------------------------|
A||--1h4p1--1-1-1-1-1-1-1-1-1-1--1h4p1--1-1-1-1-1-1-0-0-0-0--|
D||--1h4p1--1-1-1-1-1-1-1-1-1-1--1h4p1--1-1-1-1-1-1-0-0-0-0--|

END!
E||---------|
B||---------|
G||---------|
D||---------|
A||--1h4p1--|
D||--1h4p1--|


KEY:
h=Hammer On
p=Pull Off
/=Slide
(h)=Harmonic (Natural in this case)
Tap to rate this tab
 
# A B C D E F G H I J K L M N O P Q R S T U V W X Y Z