Song name
# A B C D E F G H I J K L M N O P Q R S T U V W X Y Z

Misc Unsigned Bands - Cities Divide - One Time tab

-------------------------------------------------------------------------------
			     ONE TIME – Cities Divide
-------------------------------------------------------------------------------

SCREAMO VERSION of Justin Beiber’s hit single, One Time.
Listen to it at: http://www.youtube.com/watch?v=p0D5qorCBBI
Tabbed by: Dominic Bernarte
Email: orange_bite_burger@yahoo.com

Tuning: Drop C (CGCFAD)

INTRO: 
(GUITAR 1)
D|---------------------------------------------------------------------------|
A|---------------------------------------------------------------------------|
F|---------------------------------------------------------------------------|
C|----3~-------------5~-------------5~---------3~----------------------------|
G|----3~-------------5~-------------3~---------3~----------------------------|
C|----3~-------------5~------------------------3~----------------------------|

D|---------------------------------------------------------------------------|
A|---------------------------------------------------------------------------|
F|---------------------------------------------------------------------------|
C|----3~-------------5~-------------2----------3~----------------------------|
G|----3~-------------5~-------------2----------3~----------------------------|
C|----3~-------------5~-------------2----------3~----------------------------|

(GUITAR 2)
D|---------------------------------------------------------------------------|
A|---------------------------------------------------------------------------|
F|----10~~~~~~~~~~~~~~~~~~~--------------------------------------------------|
C|----x-~~~~~~~~~~~~~~~~~~~--------------------------------------------------|
G|----8-~~~~~~~~~~~~~~~~~~~--------------------------------------------------|
C|---------------------------------------------------------------------------|
VERSE: (GUITAR 1) *PALM-MUTED*
D|---------------------------------------------------------------------------|
A|---------------------------------------------------------------------------|
F|---------------------------------------------------------------------------|
C|----33-------------55-------------55---------33----------------------------|
G|----33-------------55-------------33---------33----------------------------|
C|----33-------------55------------------------33----------------------------|
^REPEAT TWO TIMES (2x)
(GUITAR 2)
D|---------------------------------------------------------------------------|
A|---------------------------------------------------------------------------|
F|----10-10---------10-10-----------10-10------10-10-------------------------|
C|----x--x----------x--x------------x--x-------x--x--------------------------|
G|----8--8----------8--8------------8--8-------8--8--------------------------|
C|---------------------------------------------------------------------------|
^TWO TIMES (2x) ALONG WITH GUITAR 1
PRE-CHORUS:
Your World, Is my world……
(GUITAR 1) *PALM-MUTED* 
D|---------------------------------------------------------------------------|
A|---------------------------------------------------------------------------|
F|---------------------------------------------------------------------------|
C|---------------------------------------------------------------------------|
G|--------------------333333333333-------------------333333333333333---------|
C|---33333333333333-------------------3333333333333--------------------------|


(GUITAR 2) *WITH PALM-MUTING*
D|---------------------------------------------------------------------------|
A|---------------------------------------------------------------------------|
F|----------------5~------------------5~-------------------------------------|
C|--------3---3---------------3---3------------------------------------------|
G|---3--5---3---3--------3--5---3---3----------------------------------------|
C|---------------------------------------------------------------------------|
     .  .. . . .       . . . . . .

And My Fight, Is Your Fight……

(GUITAR 1) *PALM-MUTED* 
D|---------------------------------------------------------------------------|
A|---------------------------------------------------------------------------|
F|---------------------------------------------------------------------------|
C|---------------------------------------------------------------------------|
G|--------------------333333333333-------------------333333333333333---------|
C|---33333333333333-------------------3333333333333--------------------------|


(GUITAR 2)
D|---------------------------------------------------------------------------|
A|---------------------------------------------------------------------------|
F|---------------------------------------------------------------------------|
C|--------3---5---3~----------3---7—--5~-------------------------------------|
G|---3--5---3---3--------3--5---3---3----------------------------------------|
C|---------------------------------------------------------------------------|
     .  . . . . .       .  . . . . .
CHORUS *PALM-MUTED*
(GUITAR 1 AND 2) USE TREMOLO PICKING.
D|---------------------------------------------------------------------------|
A|---------------------------------------------------------------------------|
F|---------------------------------------------------------------------------|
C|---------------------------------------------------------------------------|
G|-------------------------------------------333333333333--------------------|
C|--33333333333333333------55555555555555---------------------3333333333-----|

^REPEAT ABOVE RIFF TWO TIMES (2x)
And I'ma be your one guy…You'll be my #1 girl
(GUITAR 1) REPEAT ALONG WITH (GUITAR 2)
D|---------------------------------------------------------------------------|
A|---------------------------------------------------------------------------|
F|---------------------------------------------------------------------------|
C|-----------------55--55----------------------------------------------------|
G|--33-33---55-----33--33-3--------------------------------------------------|
C|--33-33---55------------3--------------------------------------------------|
    .. ..   ..     ..  .. .
(GUITAR 2) JUST PLAY THIS RIFF REPEATEDLY
D|---------------------------------------------------------------------------|
A|---------------------------------------------------------------------------|
F|---------10----10----10h12-------------------------------------------------|
C|--10-12-----10----10-------------------------------------------------------|
G|---------------------------------------------------------------------------|
C|---------------------------------------------------------------------------|
    .  .   . .  .  .
REPEAT VERSE
PRE-CHORUS
CHORUS
then
BRIDGE
Shawty right there,She's got everything I need…
D|---------------------------------------------------------------------------|
A|---------------------------------------------------------------------------|
F|---------------------------------------------------------------------------|
C|---0~~~~~~~~~~~~~~~~~~-----------------------------------------------------|
G|---0~~~~~~~~~~~~~~~~~~-----------------------------------------------------|
C|---0~~~~~~~~~~~~~~~~~~-----------------------------------------------------|

		Give you everything you need down to my last dime……

D|---------------------------------------------------------------------------|
A|---------11~~~~~~~~~~~~~~~~------------------------------------------------|
F|---------------------------------------------------------------------------|
C|---------------------------------------------------------------------------|
G|---------------------------------------------------------------------------|
C|---------------------------------------------------------------------------|
Then the SCREAMO/GROWL Part.
Shawty right there,She's got everything I need…
D|---------------------------------------------------------------------------|
A|---------------------------------------------------------------------------|
F|---------------------------------------------------------------------------|
C|---------------------------------------------------------------------------|
G|--------------------1b-----------------------------------------------------|
C|---000--0000--00-00----------00-00000-00000-000-00-------------------------|
    ...  .... .. ..        .. ..... .... ... ..
She makes me happy… *PALM-MUTED*
D|---------------------------------------------------------------------------|
A|---------------------------------------------------------------------------|
F|---------------------------------------------------------------------------|
C|---------------------------------------------------------------------------|
G|--3333-5555-7777-8888-10101010-8888-6666-----------------------------------|
C|---------------------------------------------------------------------------|

Right by your side 'Cause she is the one
D|---------------------------------------------------------------------------|
A|---------------------------------------------------------------------------|
F|---------------------------------------------------------------------------|
C|---------------------------------------------------------------------------|
G|--3333-5555-7777-8888-10101010-8888-6666-----------------------------------|
C|---------------------------------------------------------------------------|

REPEAT CHORUS
OUTRO:
(GUITAR 1)
D|---------------------------------------------------------------------------|
A|---------------------------------------------------------------------------|
F|---------------------------------------------------------------------------|
C|---------------5--5--------------------------------------------------------|
G|--3-3---55-----3--3--3-3---------------------------------------------------|
C|--3-3---55-----------3-3---------------------------------------------------|
    . .   ..     . .   ..
(GUITAR 2)
SWEEPS/ARPEGGIOS COMING SOON!JUST WAIT!
 ENDING RIFF 
(GUITAR 1 & 2) *PALM-MUTED*
D|---------------------------------------------------------------------------|
A|---------------------------------------------------------------------------|
F|---------------------------------------------------------------------------|
C|---------------------------------------------------------------------------|
G|---------------------------------------------------------------------------|
C|---0--0--0-0---------------------------------------------------------------|
Tap to rate this tab
 
# A B C D E F G H I J K L M N O P Q R S T U V W X Y Z