Misc Unsigned Bands - Lucas Carpenter - Cant Take It Back tab

"CAN'T TAKE IT BACK" - Lucas Carpenter

Written by Lucas Carpenter

Download "Can't Take It Back" on iTunes!

Watch the video here: http://youtu.be/0oflXuYYEvA


Once you get the picking patterns down for each chord they're pretty much the same the whole
song, so to save space I just put the chords over the lyrics...just play the designated 
patterns for
each chord!


I only use my thumb(T), index(I), and middle(M) fingers for picking, and I have shown 
which fingers
I use for each note under the designated number to make things a bit easier...I hope. :p


If the finger picking is too much of a challenge, or if you're just feeling lazy you can 
always just
play the simple versions of the chords listed with the lyrics below...happy playing!



Fmaj7(9)

E:---------------0-|-----------------|---------------0-|-----------------|
B:-----------6-----|-----6-----------|-----------6-----|-----6-----------|
G:--------0--------|-----------------|--------0--------|-----------------|
D:-----7-------7---|-----7-------7---|-----7-------7---|-----7-------7---|
A:-8-------8-------|-8-------8-------|-8-------8-------|-8-------8-------|
E:-----------------|-----------------|-----------------|-----------------|

                         M                                   M
 |-T---I--MT-I-M-I-|-T---I---T---I---|-T---I--MT-I-M-I-|-T---I---T---I---|




Fmaj7(9) - slightly different pattern used for Chorus

E:-----------------|-----------------|-----------------|-----------------|
B:-----------6-----|-----------6-----|-----------6-----|-----------6-----|
G:--------0--------|--------0--------|--------0--------|--------0--------|
D:-----7-------7---|-----7-------7---|-----7-------7---|-----7-------7---|
A:-8-------8-------|-8-------8-------|-8-------8-------|-8-------8-------|
E:-----------------|-----------------|-----------------|-----------------|

 |-T---I--MT-M-I---|-T---I--MT-M-I---|-T---I--MT-M-I---|-T---I--MT-M-I---|




C7sus4

E:-----------------|-----------------|-----------------|-----------------|
B:-----------6-----|-----------6-----|-----------6-----|-----------6-----|
G:--------0--------|--------0--------|--------0--------|--------0--------|
D:-----8---8---8---|-----8---8---8---|-----8---8---8---|-----8---8---8---|
A:-----------------|-----------------|-----------------|-----------------|
E:-8---------------|-8---------------|-8---------------|-8---------------|

 |-T---I--MT-M-I---|-T---I--MT-M-I---|-T---I--MT-M-I---|-T---I--MT-M-I---|
Bb

E:-----------------|-----------------|-----------------|-----------------|
B:-----------6-----|-----------6-----|-----------6-----|-----------6-----|
G:--------7--------|--------7--------|--------7--------|--------7--------|
D:-----8-------8---|-----8-------8---|-----8-------8---|-----8-------8---|
A:---------8-------|---------8-------|---------8-------|---------8-------|
E:-6---------------|-6---------------|-6---------------|-6---------------|

 |-T---I--MT-M-I---|-T---I--MT-M-I---|-T---I--MT-M-I---|-T---I--MT-M-I---|




End of Chorus: (strum)

  Gm    Am   Bb

E:---------------6-|
B:---------------6-|
G:---------------7-|
D:-5-5--7-7--8-8-8-|
A:-5-5--7-7--8-8-8-|
E:-3-3--5-5--6-6-6-|




BRIDGE: (play 2 times, 2nd time through last chord is played longer, listen for it)

Gm7                                    C7

E:---------------10-|-----------------|---------------8-|-----------------|
B:-----------11-----|-----11----------|-----------8-----|-----8-----------|
G:--------10--------|-----------------|--------9--------|-----------------|
D:-----12-------12--|-----12------0---|-----8-------8---|-----8-------0---|
A:-10-------10------|-10------10------|---------10------|---------10------|
E:------------------|-----------------|-8---------------|-8---------------|

                          M                                   M
 |-T---I--M-T-I-M-I-|-T---I---T---I---|-T---I--M-T-IM-I-|-T---I---T---I---|


F9                  F9/E              Bb

E:-----------------|-----------------|-----------------|-----------------|
B:-----------6-----|-----------6-----|-----------6-----|-----------6-----|
G:--------0--------|--------0--------|--------7--------|--------7--------|
D:-----7-------7---|-----0-------0---|-----8-------8---|-----8-------8---|
A:-8-------8-------|-7-------7-------|---------8-------|---------8-------|
E:-----------------|-----------------|-6---------------|-6---------------|

 |-T---I--MT-M-I---|-T---I--MT-M-I---|-T---I--MT-M-I---|-T---I--MT-M-I---|




Bb

E:-----------------|-----------------|-----------------|-----------------|
B:-----------6-----|-----------6-----|-----------6-----|-----------6-----|
G:--------7--------|--------7--------|--------7--------|--------7--------|
D:-----8-------8---|-----8-------8---|-----8-------8---|-----8-------8---|
A:---------8-------|---------8-------|---------8-------|---------8-------|
E:-6---------------|-6---------------|-6---------------|-6---------------|

 |-T---I--MT-M-I---|-T---I--MT-M-I---|-T---I--MT-M-I---|-T---I--MT-M-I---|


C7sus4

E:-----------------|-----------------|
B:-----------6-----|-----------6-----|
G:--------0--------|--------0--------|
D:-----8---8---8---|-----8---8---8---|
A:-----------------|-----------------|
E:-8---------------|-8---------------|

 |-T---I--MT-M-I---|-T---I--MT-M-I---|



VERSE 1


Fmaj7(9)
I see you across the way

Your smirk lets me know that you're

                       C7sus4
Feeling the same way I do,

                                      Fmaj7(9)
Cause I'm about to burst out laughing too

Countless times I've crashed on this couch

Catching up till the sun comes up

                             C7sus4
But I had my doubts if I was right

                                 Fmaj7(9)
Cause every time we'd just say goodnight

              C7sus4
But now we've got some decisions to make

Do we cross the line and never stay the same





CHORUS
         Bb
Cause we can't take it back,

No we can't take it back

   Fmaj7(9)
We can't take it back

No we can't take it back

      Bb
No we can't take it back

No we can't take it back

           C7sus4
Cause with you and me there's no in between

       Gm           Am    Bb
You're either gonna be my bride-to-be

Or my best friend in the end


VERSE 2

Fmaj7(9)
History sits in frames on your desk
                                                 C7sus4
Graduations, celebrations, you and your B.F.F. in most

                                        Fmaj7(9)
Always repeating "no, we're just really close"

Well I'd never trade those memories for a one night stand

Cause girls like you are far and few

I can count them on one hand

                 C7sus4
We drove through life
                                           Fmaj7(9)
Cause up in our conversation we missed the signs

             C7sus4
And now we've got some decisions to make

Cause once we cross this line it'll never be the same


CHORUS
         Bb
Cause we can't take it back,

No we can't take it back

   Fmaj7(9)
We can't take it back

No we can't take it back

      Bb
No we can't take it back

No we can't take it back

           C7sus4
Cause with you and me there's no in between

       Gm           Am    Bb
You're either gonna be my bride-to-be

                           Fmaj7(9)
Or my best friend in the end



BRIDGE

      Gm7                             C7
Well, maybe we'll go dancing down the isle
   F9                F9/E
In grocery stores or church cathedrals
Bb
I'm content, either way, we can have movie-nights on mondays
              C7sus4
And then I'll go
   Gm7                                  C7
Or we can hold hands in the shadow of a steeple
F9          F9/E     Bb
Standing in front of hundreds of people
              C7sus4
All saying "I told you so"


CHORUS
         Bb
Cause we can't take it back,

No we can't take it back

   Fmaj7(9)
We can't take it back

No we can't take it back

      Bb
No we can't take it back

No we can't take it back

           C7sus4
Cause with you and me there's no in between

         Bb
Cause we can't take it back,

No we can't take it back

   Fmaj7(9)
We can't take it back

No we can't take it back

      Bb
No we can't take it back

No we can't take it back

           C7sus4
Cause with you and me there's just no in between

    Gm               Am    Bb
And now you're gonna be my bride-to-be

    Gm            Am    Bb
Yes, you're gonna be my bride-to-be

And my best friend in the end
Tap to rate this tab
 
# A B C D E F G H I J K L M N O P Q R S T U V W X Y Z