Misc Unsigned Bands - Gribs - Sinetron Indonesia tab

Song Title    : Sinetron Indonesia
Artist        : GRIBS
Tabbed by     : yoos (yoosyoes.blogspot.com)


@intro
e|------------------------------|
B|------------------------------|
G|--6/7----------------------7--|
D|--6/7----4/5---5/7---------7--|
A|--4/5----4/5---5/7---------5--|
E|---------2/3---3/5---3p2p0----|

@solo
e|--14--14--14-14-14-14-----14-12-------------------10------------|
B|-----------------------15---------12--10-------10----------10\--|
G|------------------------------------------9-11--------9-11------|
D|----------------------------------------------------------------|
A|----------------------------------------------------------------|
E|----------------------------------------------------------------|

e|--------12-14--14--14-12-14-12-----14-12----------------------------10--|
B|--13-15-------------------------15---------10b12-------8-----7----------|
G|---------------------------------------------------5h7---5h7---9h11-----|
D|------------------------------------------------------------------------|
A|------------------------------------------------------------------------|
E|------------------------------------------------------------------------|



CHORD

(intro)
D G A D

D              G
Bila kau ingin lihat
A              D
Drama penuh air mata
D                  G
Penuh dendam orang gila
A                  D
Saling rebut harta warisan

D              G
Bila ingin kau lihat
A           D
Para wanita cantik
D                 G
Seksi menarik menawan hati
A                    D
Berlagak kayak nenek sihir

D G A D

D              G
Bila kau ingin lihat
A                   D
Cerita yang menjual mimpi
D                  G
Cengeng kampungan sedikit murahan
A               D
Nyalakan layar televisi

A
Selama seminggu
D
Disuguhi itu melulu
G       A
200 episode
G       A
Cerita tak bermutu
G
Tutup telingamu
A
Pejamkan matamu
G
Kepalkan tanganmu
A
Kami tak segoblok itu

D        G        A      D
Sinetron sinetron Indonesia
D                  G
Semuanya hanya ada di dalam
    A            D
Sinetron Indonesia

(solo)
G D G A

D G A D

D               G
Benar kau ingin lihat
A            D
Sinetron Indonesia
D              G
Yakin ingin lihaaaaaaaat
A          D
Tentu tidak

D        G        A      D
Sinetron sinetron Indonesia
D                  G
Semuanya hanya ada di dalam
    A            D
Sinetron Indonesia

D G A D
Tap to rate this tab
 
# A B C D E F G H I J K L M N O P Q R S T U V W X Y Z