Misc Unsigned Bands - Monster Machismo - Tisk Tisk tab

As far as i can tell this is the first tab for this band, so here it is.


e--------------------------------------------------|
B--------------------------------------------------|
G--4-4--4-4--4-4----4-4--4-4--4-4----2-2--2-2--2-2-|
D--5-5--5-5--5-5----5-5--5-5--5-5----1-1--1-1--1-1-|
A--3-3--3-3--3-3----3-3--3-3--3-3----2-2--2-2--2-2-|
E--------------------------------------------------|

e----------------------------|
B----------------------------|
G-----------7-7--4-4--4-4--4-|
D------5-5--7-7--5-5--5-5--5-|
A------5-5--5-5--3-3--3-3--3-|
E--0-2/3-3-------------------|

you play that a couple times and then the last part is just harmonics

*harmonics*
e--12----7-----5-|
B--12----7-----5-|
G--12----7-----5-|
D----------------|
A----------------|
E----------------|
Tap to rate this tab
 
# A B C D E F G H I J K L M N O P Q R S T U V W X Y Z