Song name
# A B C D E F G H I J K L M N O P Q R S T U V W X Y Z

Misc Unsigned Bands - Your Hero Is A Villain - Not Another Hometown Hero tab

Artist: Your Hero Is A Villain
Song: Not Another Hometown Hero
Part: Full Song
Instruments: Clean Guitar, Distortion/Effect Guitar(s), Keyboard
Tabbed By: NightmareNeto

INTRO:

Clean Guitar:
|----------------|
|----------------|
|----10------9---|
|---7--x4---7-x4-| x2
|--8-------8-----|
|----------------|

Keyboard:
|--------------------|
|--------------------|
|--10----9---12--14--|
|--------------------|
|--------------------|
|--------------------|

Rhythm Distortion Guitar:
|---------------------------------------------------------------------------|
|---------------------------------------------------------------------------|
|---------------------------------------------------------------------------|
|--888888888888888800000000000000001010101010101010101010101010101088888888-|x2
|--888888888888888800000000000000001010101010101010101010101010101088888888-|
|--888888888888888800000000000000001010101010101010101010101010101088888888-|

Lead Distortion Guitar:
|-------------------------------------------------------------------------------------------|
|-------------------------------------------------------------------------------------------|
|--1010101010101010101010101010101099999999121212121414141417171717171717171717171717171717-|
|--x-x-x-x-x-x-x-x-x-x-x-x-x-x-x-x-xxxxxxxxx-x-x-x-x-x-x-x-x-x-x-x-x-x-x-x-x-x-x-x-x-x-x-x--|
|--8-8-8-8-8-8-8-8-8-8-8-8-8-8-8-8-77777777101010101212121215151515151515151515151515151515-|
|-------------------------------------------------------------------------------------------|

|----------------------------------------------------------------------------|
|----------------------------------------------------6----------------6-6----|
|15151515151515151515151510101010-0------------------9----0000--------9-9----|
|x-x-x-x-x-x-x-x-x-x-x-x-x-x-x-x--0-----------------------0000---------------|
|1313131313131313131313138-8-8-8--0-----------------------0000---------------|
|----------------------------------------------------------------------------|


FIRST VERSE:

Rhythm Guitar:
|-------------------------------------------------|
|-------------------------------------------------|
|----------------------------------------------8--|
|---------0----------0----------8--5-3---5-3-5----|
|-000-000-0--000-000-0--888-888-8------5----------|
|-000-000-0--000-000-0--888-888-8-----------------|

-------------------------------------------------|
-------------------------------------------------|
-------------------------------------------------|
---------0----------0----------8--5-3---5-3-5-1--|
-000-000-0--000-000-0--888-888-8------5----------|
-000-000-0--000-000-0--888-888-8-----------------|


Lead Guitar
|----------------------------------------------------|
|----------------------------------------------------|
|----------------------------------------------------|
|---------0----------0----------8----------------10--|
|-000-000-0--000-000-0--888-888-8--101010-101010-10--|
|-000-000-0--000-000-0--888-888-8--101010-101010-10--|

Rhythm Guitar
|------------------------------------------------|
|------------------------------------------------|
|----------------------------------------------8-|
|---------0----------0----------8--5-3---5-3-5---|
|-000-000-0--000-000-0--888-888-8------5---------|
|-000-000-0--000-000-0--888-888-8----------------|

--------------------------------------------------|
--------------------------------------------------|
--------------------------------------------------|
----------0----------0----------8--5-3---5-3-5-1--|
--000-000-0--000-000-0--888-888-8------5----------|
--000-000-0--000-000-0--888-888-8-----------------|


Lead Guitar
|--------------------------------------------------|
|--------------------------------------------------|
|----------------------------------------------10--|
|---------0----------0----------8--7-5---7-5-7-----|
|-000-000-0--000-000-0--888-888-8------7-----------|
|-000-000-0--000-000-0--888-888-8------------------|

------------------------------------------------|
------------------------------------------------|
------------------------------------------------|
--------0----------0----------8--7-5---7-5-7-3--|
000-000-0--000-000-0--888-888-8------7----------|
000-000-0--000-000-0--888-888-8-----------------|


BRIDGE:

Both Guitars:
|----------------------------------------------------|
|----------------------------------------------------|
|----------------------------------------------------|
|--0-----------------------------------------10--8---|
|--0-----------------------------------------10--8---|
|--0-----------------------------------------10--8---|

---------------------------------------------|
---------------------------------------------|
---------------------------------------------|
-----------------3-------------10--10--8--8--|
-----------------3-------------10--10--8--8--|
-----------------3-------------10--10--8--8--|


CHORUS:

Rhythm Guitar:
|---------------------------------------------------------------------------------------|
|---------------------------------------------------------------------------------------|
|---------------------------------------------------------------------------------------|
|--8-8-8883-33-3333-----------------------8-8-88810-1010-10101010-----------------------|
|--8-8-8883-33-3333-----------------------8-8-88810-1010-10101010-----------------------|
|--8-8-8883-33-3333-3^-000-000-3^-000-000-8-8-88810-1010-10101010-3^-000-000-3^-000-000-|

Lead Guitar:
|---------------------------------------------------------------------------------------------|
|---------------------------------------------------------------------------------------------|
|--10-10-1010109-9-9-999-12/14-14141414-12/14-14141414-14141414--10-10-1010109-9-9-999-12/14--|
|--x--x--x-x-x-x-x-x-xxx-x--x--x-x-x-x--x--x--x-x-x-x--x-x-x-x---x--x--x-x-x-x-x-x-xxx-x--x---|
|--8--8--8-8-8-7-7-7-777-10/12-12121212-10/12-12121212-12121212--8--8--8-8-8-7-7-7-777-10/12--|
|---------------------------------------------------------------------------------------------|

|------------------------------------------------------------------------------------------------|
|------------------------------------------------------------------------------------------------|
|--14141414-12/14-14141414--17--17--17-17-17-17-15--15-15-15151515-12/14-14141414-12/14-14141414-|
|--x-x-x-x--x--x--x-x-x-x---x---x---x--x--x--x--x---x--x--x-x-x-x--x--x--x-x-x-x--x--x--x-x-x-x--|
|--12121212-10/12-12121212--15--15--15-15-15-15-13--13-13-13131313-10/12-12121212-10/12-12121212-|
|------------------------------------------------------------------------------------------------|

|-------------------------------------------------------|
|-------------------------------------------------------|
|--10-10-1010109-9-9-999-12/14-14141414-12/14-14141414--|
|--x--x--x-x-x-x-x-x-xxx-x--x--x-x-x-x--x--x--x-x-x-x---|
|--8--8--8-8-8-7-7-7-777-10/12-12121212-10/12-12121212--|
|-------------------------------------------------------|


VERSE TWO:

Rhythym Guitar:
|---------------------------------------------------------------------------------------|
|---------------------------------------------------------------------------------------|
|---------------------------------------------------------------------------------------|
|---------------------------------------------------------------------------------------|
|--000-000-0-000-000-0-888-888-8-777-777-7----000-000-0-000-000-0-888-888-10-777-777-8--|
|--000-000-0-000-000-0-888-888-8-777-777-7----000-000-0-000-000-0-888-888-10-777-777-8--|

Lead Guitar
|--------------------------------------------------------------------|
|--------------------------------------------------------------------|
|--------------------------------------------------------------------|
|--------------------------------------------------------------------|
|--5--8--5--8--5--8--5--8--4--7--4--7--7--10--8--12--(Tremolo Pick)--|
|--------------------------------------------------------------------|


CHORUS:

Rhythm Guitar:
|---------------------------------------------------------------------------------------|
|---------------------------------------------------------------------------------------|
|---------------------------------------------------------------------------------------|
|--8-8-8883-33-3333-----------------------8-8-88810-1010-10101010-----------------------|
|--8-8-8883-33-3333-----------------------8-8-88810-1010-10101010-----------------------|
|--8-8-8883-33-3333-3^-000-000-3^-000-000-8-8-88810-1010-10101010-3^-000-000-3^-000-000-|

Lead Guitar:
|---------------------------------------------------------------------------------------------|
|---------------------------------------------------------------------------------------------|
|--10-10-1010109-9-9-999-12/14-14141414-12/14-14141414-14141414--10-10-1010109-9-9-999-12/14--|
|--x--x--x-x-x-x-x-x-xxx-x--x--x-x-x-x--x--x--x-x-x-x--x-x-x-x---x--x--x-x-x-x-x-x-xxx-x--x---|
|--8--8--8-8-8-7-7-7-777-10/12-12121212-10/12-12121212-12121212--8--8--8-8-8-7-7-7-777-10/12--|
|---------------------------------------------------------------------------------------------|

|------------------------------------------------------------------------------------------------|
|------------------------------------------------------------------------------------------------|
|--14141414-12/14-14141414--17--17--17-17-17-17-15--15-15-15151515-12/14-14141414-12/14-14141414-|
|--x-x-x-x--x--x--x-x-x-x---x---x---x--x--x--x--x---x--x--x-x-x-x--x--x--x-x-x-x--x--x--x-x-x-x--|
|--12121212-10/12-12121212--15--15--15-15-15-15-13--13-13-13131313-10/12-12121212-10/12-12121212-|
|------------------------------------------------------------------------------------------------|

|------------------------------------------------------------|
|------------------------------------------------------------|
|--10-10-1010109-9-9-999-12/14-14141414-12/14-14141414-------|
|--x--x--x-x-x-x-x-x-xxx-x--x--x-x-x-x--x--x--x-x-x-x---0----|
|--8--8--8-8-8-7-7-7-777-10/12-12121212-10/12-12121212--0----|
|-------------------------------------------------------0----|


BRIDGE:

Lead Clean Guitar:
|----------------|
|----------------|
|----10------9---|
|---7--x4---7-x4-| x2
|--8-------8-----|
|----------------|

|----------------|
|----------------|
|----3------5----|
|---3-x4---5-x4--|
|--1------3------|
|----------------|

Rhythm Guitar:
|------------------|
|------------------|
|------------------|
|----8--------10---|
|---8-x4----10--x4-|
|--8------10-------|


Outro:

Rhythm Distortion Guitar:
|---------------------------------------------------------------------------|
|---------------------------------------------------------------------------|
|---------------------------------------------------------------------------|
|--888888888888888800000000000000001010101010101010101010101010101088888888-|x2
|--888888888888888800000000000000001010101010101010101010101010101088888888-|
|--888888888888888800000000000000001010101010101010101010101010101088888888-|

Lead Distortion Guitar:
|-------------------------------------------------------------------------------------------|
|-------------------------------------------------------------------------------------------|
|--1010101010101010101010101010101099999999121212121414141417171717171717171717171717171717-|
|--x-x-x-x-x-x-x-x-x-x-x-x-x-x-x-x-xxxxxxxxx-x-x-x-x-x-x-x-x-x-x-x-x-x-x-x-x-x-x-x-x-x-x-x--|
|--8-8-8-8-8-8-8-8-8-8-8-8-8-8-8-8-77777777101010101212121215151515151515151515151515151515-|
|-------------------------------------------------------------------------------------------|

|----------------------------------|
|----------------------------------|
|15151515151515151515151510101010--|
|x-x-x-x-x-x-x-x-x-x-x-x-x-x-x-x---|
|1313131313131313131313138-8-8-8---|
|----------------------------------|

Lead Guitar:
|--------------------------------------------------|
|--------------------------------------------------|
|----------------------------------------------10--|
|---------0----------0----------8--7-5---7-5-7-----| x4
|-000-000-0--000-000-0--888-888-8------7-----------|
|-000-000-0--000-000-0--888-888-8------------------|

Rhythm Guitar:
|--------------------------------------------------|
|--------------------------------------------------|
|----------------------------------------------8---|
|---------0----------0----------8--5-3---5-3-5-----| x4
|-000-000-0--000-000-0--888-888-8------5-----------|
|-000-000-0--000-000-0--888-888-8------------------|

Keyboard:
|--------------------------------------------------------------|
|--------------------------------------------------------------|
|--10--9-10-12-10-9-7----10-9-10-5----9-10-12-10-9-12-1210-10--|
|--------------------------------------------------------------|
|--------------------------------------------------------------|
|--------------------------------------------------------------|
Tap to rate this tab
 
# A B C D E F G H I J K L M N O P Q R S T U V W X Y Z