Misc Unsigned Bands - Sergio Napoleao Belluco - Emotivo tab

-------------------------------------------------------------------------------
		Emotivo (Tango de SNB)' by 'Sergio Napolećo Belluco'
-------------------------------------------------------------------------------
Tabbed by: Autopoietic Boy
Email: Jonah.Paszek@gmail.com

Tuning: standard


Part 1a

e|-3--------2-----0-----3--------2-----0-------------------------------------|
B|----0--0-----------------1--1-----------3--------1-----3--0--------0--3-1--|
G|----0--0-----------------2--2--------------2--2--------------0--0----------|
D|-------------------------------------------0--0--------------0--0----------|
A|----------------------0-----------0----------------------------------------|
E|-0-----------0--------------------------2-----------2-----3----------------|


Part 1b

e|--------------0--2--3--------2-3-4-5-5---5-5---5---7-----------------------|
B|--0--------4------------0--0-------5-5---5-5---5---7-----------------------|
G|-----2---2--------------0--0-------5-5---5-5---5---8-----------------------|
D|-----1---1-----------------------------------------------------------------|
A|-----------------------------------0-------0--------------9----------------|
E|--2-----------------0------------------------------7-------------2p0-3-2---|


Part 1a

e|-3--------2-----0-----3--------2-----0-------------------------------------|
B|----0--0-----------------1--1-----------3--------1-----3--0--------0--3-1--|
G|----0--0-----------------2--2--------------2--2--------------0--0----------|
D|-------------------------------------------0--0--------------0--0----------|
A|----------------------0-----------0----------------------------------------|
E|-0-----------0--------------------------2-----------2-----3----------------|

Part 1c

e|-------------0-2----5p3---0-2p0--------------------------0-------0---------|
B|--0--------4-----------h4---------0--3p1-0----------0----0-------0---------|
G|------2--2---------------------h3----------2---0---------0-------0---------|
D|------1--1-------------------------------------2----1----------------------|
A|-------------------------------------0---------1----0--------2-------------|
E|--2-----------------0-------0----------------------------0-------0---------|

Part 2a                                                   Part 2b

e|--4-------4p2p0-5-------5p2---5-------5p2----------------0-0---0-0---2-----|  
B|----0--0-----------2--------4----4--4-----4-2------0-----0-0---0-0---0-----|  
G|----1--1-----------2-------------4--4-----------1-----1--1-1---1-1---1-----|  
D|------------------------------------------------2-----2--------------------|  
A|----------------------2-------0--------------------2-----------------------|  
E|--0-------------2---------------------------0------------0-------0---------|



e|--------------2-2---2-2---4--2p0-7p4p0-------------------------------------|
B|--5-----------4-4---4-4---4------------2p0---------------------------------|
G|-----2--4--2--2-2---2-2---2----------------1-------------------------------|
D|-----4-----4---------------------------------------------------------------|
A|--------2------------------------------------------------------------------|
E|--2-----------2-------2----------------------------------------------------|

Part 2a                                                   Part 2c

e|--4-------4p2p0-5-------5p2---5-------5p2----------------0------0p2--------|  
B|----0--0-----------2--------4----4--4-----4-2------0-------2---2-----------|  
G|----1--1-----------2-------------4--4-----------1-----1----2---------------|  
D|------------------------------------------------2-----2--------------------|  
A|----------------------2-------0--------------------2-----0----1------------|  
E|--0-------------2---------------------------0------------------------------|



e|--0------0h2-4---------2-4--0----------------------------------------------|
B|----0-----------2------4-4--0----------------------------------------------|
G|----1-----------3------2-2--1----------------------------------------------|
D|----------------------------2----------------------------------------------|
A|--2----------------2--------2----2-----------------------------------------|
E|-------0-----2--------------0--------0-------------------------------------|

Part 1a

e|-3--------2-----0-----3--------2-----0-------------------------------------|
B|----0--0-----------------1--1-----------3--------1-----3--0--------0--3-1--|
G|----0--0-----------------2--2--------------2--2--------------0--0----------|
D|-------------------------------------------0--0--------------0--0----------|
A|----------------------0-----------0----------------------------------------|
E|-0-----------0--------------------------2-----------2-----3----------------|


Part 1b

e|--------------0--2--3--------2-3-4-5-5---5-5---5---7-----------------------|
B|--0--------4------------0--0-------5-5---5-5---5---7-----------------------|
G|-----2---2--------------0--0-------5-5---5-5---5---8-----------------------|
D|-----1---1-----------------------------------------------------------------|
A|-----------------------------------0-------0--------------9----------------|
E|--2-----------------0------------------------------7-------------2p0-3-2---|


Part 1a

e|-3--------2-----0-----3--------2-----0-------------------------------------|
B|----0--0-----------------1--1-----------3--------1-----3--0--------0--3-1--|
G|----0--0-----------------2--2--------------2--2--------------0--0----------|
D|-------------------------------------------0--0--------------0--0----------|
A|----------------------0-----------0----------------------------------------|
E|-0-----------0--------------------------2-----------2-----3----------------|

Part 1c

e|-------------0-2----5p3---0-2p0--------------------------0-------0---------|
B|--0--------4-----------h4---------0--3p1-0----------0----0-------0---------|
G|------2--2---------------------h3----------2---0---------0-------0---------|
D|------1--1-------------------------------------2----1----------------------|
A|-------------------------------------0---------1----0--------2-------------|
E|--2-----------------0-------0----------------------------0-------0---------|



************************************

| /   slide up
| \   slide down
| h   hammer-on
| p   pull-off
| ~   vibrato
| +   harmonic
| x   Mute note
| b   Bend
| pb  Pre-bend
| br  Bend release
| pbr Pre-bend release
| brb Bend release bend

************************************
Tap to rate this tab
 
# A B C D E F G H I J K L M N O P Q R S T U V W X Y Z