Misc Unsigned Bands - Donkey Kong Country - Aquatic Ambience tab

-------------------------------------------------------------------------------
			     Aquatic Ambiance - Donkey Kong Country
-------------------------------------------------------------------------------
Tabbed by: OZZtin
Email: acl59@live.com

Tuning: Standard

e|---------------------------------------------------------------------------|
B|-------------------3-----3--4--4b5r4--4--3---------------------------------|
G|--5b6--5--------------5---------------------3-----3b4r3--------3b4r3-------|
D|-----------5~--------------------------------------------1------------1----|
A|---------------------------------------------------------------------------|
E|---------------------------------------------------------------------------|

e|------------------------------------------6--8--------------6b7r6----------|
B|-------------------3-----3--4--4b5r4--/8--------4-----------------4--------|
G|--5b6--5--------------5----------------------------3b4r3-------------------|
D|-----------5~---------------------------------------------1----------------|
A|---------------------------------------------------------------------------|
E|---------------------------------------------------------------------------|

e|---------------------------------------------------------------------------|
B|---------------------------------------------------------------------------|
G|--3b4r3--------------------------------------------------------------------|
D|---------1-----------------------------------------------------------------|
A|---------------------------------------------------------------------------|
E|---------------------------------------------------------------------------|


************************************

| /   slide up
| ~   vibrato
| b   Bend
| br  Bend release

************************************
Tap to rate this tab
 
# A B C D E F G H I J K L M N O P Q R S T U V W X Y Z