Song name
# A B C D E F G H I J K L M N O P Q R S T U V W X Y Z

Misc Unsigned Bands - Outta Peak - Megan Fox tab

Hi,
This is my second tab.
It is 99% correct, but the solo miss.
For any information or for solo email-me at pushandrock (at) gmail (dot) com

Iko, PushAndRock.

The link at the song: http://www.youtube.com/watch?v=8Dz5DUm1ibw


Intro (Guitar 1 and 2):

|-----|
|-----|
|-----|
|--7--|
|--7--|
|--5--|


Verse (Guitar 1 and 2):

|--------------|
|--------------|
|-----7-----7--|
|--7--7--5--7--|
|--7--5--5--5--|
|--5-----3-----|


Chorus (Guitar 1):

|--------------|
|--------------|
|-----7-----7--|
|--7--7--5--7--|
|--7--5--5--5--|
|--5-----3-----|

Chorus (Guitar 2):

|---------------------------------------------------|
|---------------------------------------------------|
|----6-7-6------6-7-6-----------6-7-6---------------|
|--7-7-----7-7-7------7-5----7-7-----5--------------|
|---------------------------------------------------|
|---------------------------------------------------|


Bridge:

|--------|
|--------|
|-----7--|
|--7--7--|
|--7--5--|
|--5-----|

Intro x2
Verse x6
Chorus x4
Verse x6
Intro x8
Bridge x8
(Only Drum)
Chorus x4
Intro
Tap to rate this tab
 
# A B C D E F G H I J K L M N O P Q R S T U V W X Y Z