Song name
# A B C D E F G H I J K L M N O P Q R S T U V W X Y Z

Misc Unsigned Bands - Collin Mcloughlin - Stereo Hearts Cover tab

Gym Class Heroes - Stereo hearts Cover by Collin Mcloughlin

CAPO 1st fret.

( not according to capo)
e|----------------3-------------1-----------1h3p1-----1---------------------|
B|-------------4----4--------4-----------4---------4--------------1h3-----4-|
G|----------5-------------1-----------3------------------------3------------|
D|---------------------------------1------------------------3---------------|
A|-------3-----------------------------------------------1-------------1----|
E|---------------------4----------------------------------------------------|


e|----------------1--------------1-----------1h3p1-----1--------------------|
B|-------------3-----3--------3-----------4---------4--------------1h3------|
G|----------1--------------1-----------3------------------------3-----------|
D|----------------------------------1------------------------3--------------|
A|-------3------------------------------------------------1-----------------|
E|----------------------4---------------------------------------------------|



(according to capo)


e|----------------2-------------0-----------0h2p0-----0---------------------|
B|-------------3----3--------3-----------3---------3--------------0h2-----3-|
G|----------4-------------0-----------2------------------------2------------|
D|---------------------------------0------------------------2---------------|
A|-------2-----------------------------------------------0-------------1----|
E|---------------------3----------------------------------------------------|


e|----------------0--------------0-----------0h2p0-----0--------------------|
B|-------------2-----2--------2-----------3---------3--------------0h2------|
G|----------0--------------0-----------2------------------------2-----------|
D|----------------------------------0------------------------2--------------|
A|-------2------------------------------------------------0-----------------|
E|----------------------3---------------------------------------------------|
Tap to rate this tab
 
# A B C D E F G H I J K L M N O P Q R S T U V W X Y Z