Song name
# A B C D E F G H I J K L M N O P Q R S T U V W X Y Z

Misc Unsigned Bands - John Powell - Super Hero Comix tab

-----------------------------------------------------------------------------
                           SUPER HERO COMIX                  JOHN POWELL
-----------------------------------------------------------------------------

Tabbed by:hurricaneherman

Electric guitar:Standard Tuning
Acoustic guitar:Standard Tuning

The electric guitar plays this through the whole song.

 |electric|
  P.M- - - - - - - - - - - - - - - - - - - - - - - - - - - - - - |
e|----------------------------------------------------------------|
B|----------------------------------------------------------------|
G|----------------------------------------------------------------|
D|5---5---5---5---5---5---5---5---5---5---5---5---5---5---5---5---|
A|5---5---5---5---5---5---5---5---5---5---5---5---5---5---5---5---|
E|----------------------------------------------------------------|


  G           Em  G                                 Em  G
 |acoustic|
e|3-----------0---3---------------------------------0---3---------|
B|3-----------0---3---------------------------------0---3---------|
G|0-----------0---0---------------------------------0---0---------|
D|0-----------2---0---------------------------------2---0---------|
A|x-----------2---x---------------------------------2---x---------|
E|3-----------0---3---------------------------------0---3---------|

  C                            Em                   C   D
 |acoustic|
e|0----0----0------------------0--------------------0---2---------|
B|1----1----1------------------0--------------------1---3---------|
G|0----0----0------------------0--------------------0---2---------|
D|2----2----2------------------2--------------------2---0---------|
A|3----3----3------------------2--------------------3-------------|
E|-----------------------------0----------------------------------|

  G
 |acoustic|
e|3-------------------|
B|3-------------------|
G|0-------------------|
D|0-------------------|
A|x-------------------|
E|3-------------------|

=============================================================================
I hope you enjoy this tab and that it was easy to follow.

Peace, Love, I'm out.
Tap to rate this tab
 
# A B C D E F G H I J K L M N O P Q R S T U V W X Y Z