Song name
# A B C D E F G H I J K L M N O P Q R S T U V W X Y Z

Misc Unsigned Bands - Ken Yates - I Dont Wanna Fall In Love tab

Hey, this is my first tab so let me know if there's anything that could make it better. 
Im pretty sure its all right but let me know what you think.

Here is the link to his video:
http://www.youtube.com/watch?v=oe-kRnNeWrk

capo on 6th

Intro
e-3-----------------------------------1-----1---------0-----0---------3-------|
B-------1---1-------3-----3---3-------------------------------3-1-----1---1---|
G---0-------------0---------------------2-------2---2-------------2-----------|
D-2---2-------0h2-----0-------------0-------------------2-------3---3---3---3-|
A-------------------2---2-------0h2---3---3---3---3---3---3-------------------|
E---------3-----------------3-------------------------------------------------|

e-------------------------------------------------|
B-1---1---------1---------1---1---1---------1---1-|
G-0h2-0-0---0---------0-----------------0---------|
D-------0h2-0-----0h2-------2-------0h2-------2---|
A-------------3-----------------3-----------------|
E-----------------------3-----------------3-------|

Verse
e-3-----------------------------------1-----1---------0-----0---------3-------|
B-------1---1-------3-----3---3-------------------------------3-1-----1---1---|
G---0-------------0---------------------2-------2---2-------------2-----------|
D-2---2-------0h2-----0-------------0-------------------2-------3---3---3---3-|
A-------------------2---2-------0h2---3---3---3---3---3---3-------------------|
E---------3-----------------3-------------------------------------------------|

e-------------------------------------------------|
B-1---1---------1---------1---1---1---------1---1-|
G-0h2-0-0---0---------0-----------------0---------|
D-------0h2-0-----0h2-------2-------0h2-------2---|
A-------------3-----------------3-----------------|
E-----------------------3-----------------3-------|

e-3-----------------------------------1-----1---------0-----0---------3-------|
B-------1---1-------3-----3---3-------------------------------3-1-----1---1---|
G---0-------------0---------------------2-------2---2-------------2-----------|
D-2---2-------0h2-----0-------------0-------------------2-------3---3---3---3-|
A-------------------2---2-------0h2---3---3---3---3---3---3-------------------|
E---------3-----------------3-------------------------------------------------|

e-----------------------------------------|
B-1---1---------1---------1---1---1-------|
G-0h2-0-0---0---------0-----------------0-|
D-------0h2-0-----0h2-------2-------0h2---|
A-------------3-----------------3---------|
E-----------------------3-----------------|

Chorus
e-------------------------------------------------3---------------|
B-3-----3-----------------------0-------------1-------1---1-------|
G---------2-----2-----2-----2-----------------------------------0-|
D---3---------------------------------0---2---------2-------0h2---|
A-1---1-----3-----3-----3---------0h2---3---3-----------3---------|
E---------1---1-----1-----1---3-----------------3-----------------|

e-------------------------------------------------------------3-------|
B-3-----3-----------------------0-------1-------0-------1-----1---1---|
G---------2-----2-----2-----2-----------------0-------0---2-----------|
D---3---------------------------------0---2-------------3---3---3---3-|
A-1---1-----3-----3-----3---------0h2---3---3-----2-------------------|
E---------1---1-----1-----1---3-----------------3---3-----------------|

e-------------|
B-1---1-------|
G-0h2-0-0---0-|
D-------0h2-0-|
A-------------|
E-------------|


Verse (same as first)


Chorus (different than first)
e-------------------------------------------------3---------------|
B-3-----3-----------------------0-------------1-------1---1-------|
G---------2-----2-----2-----2-----------------------------------0-|
D---3---------------------------------0---2---------2-------0h2---|
A-1---1-----3-----3-----3---------0h2---3---3-----------3---------|
E---------1---1-----1-----1---3-----------------3-----------------|

e---------------------------------------------------------|
B-3-----3-----------------------0-------1-----1-----1-----|
G---------2-----2-----2-----2-----------------------------|
D---3---------------------------------0---2-----2-----2---|
A-1---1-----3-----3-----3---------0h2---3---3-----3-----3-|
E---------1---1-----1-----1---3---------------------------|


e-------------------------------------------------3---------------|
B-3-----3-----------------------0-------------1-------1---1-------|
G---------2-----2-----2-----2-----------------------------------0-|
D---3---------------------------------0---2---------2-------0h2---|
A-1---1-----3-----3-----3---------0h2---3---3-----------3---------|
E---------1---1-----1-----1---3-----------------3-----------------|


e------------------------------------------------------------|
B-3-----3-----------------------0-------1-----1-----0-----0--|
G---------2-----2-----2-----2--------------------------------|
D---3---------------------------------0---2-----2------------|
A-1---1-----3-----3-----3---------0h2---3---3-----3---2------|
E---------1---1-----1-----1---3---------------------3---3----|

Bridge
e---x--x----x--x----x--x----x-x-x-x-x----x--x----x--x--x-x-x-x-x-x-x-3-|
B---1--1----1--1----1--1----1-1-1-1-1----1--1----1--1--0h1-1-1-0-1-0-0-|
G---2--0----0--0----2--0----0-0-0-0-0----2--0----0--0--0-0-0-0-0-0-0-0-|
D---3--3----0--0----3--3----0-0-0-0-0----3--3----0--0--0h2-2-2-0-2-0-0-|
A---x--x----0--2----x--x----0h2-2-0h2----x--x----0--2--3-3-3-3-3-3-3-2-|
E-1-1--1--3-3--3--1-1--1--3-3-3-3-3-3--1-1--1--3-3--3--3-3-3-3-3-3-3-3-|

e---x--x----x--x----x--x----x-x-x-x-x----x--x----x--x--x-x-x-x-x-x-x-3-|
B---1--1----1--1----1--1----1-1-1-1-1----1--1----1--1--0h1-1-1-0-1-0-0-|
G---2--0----0--0----2--0----0-0-0-0-0----2--0----0--0--0-0-0-0-0-0-0-0-|
D---3--3----0--0----3--3----0-0-0-0-0----3--3----0--0--0h2-2-2-0-2-0-0-|
A---x--x----0--2----x--x----0h2-2-0h2----x--x----0--2--3-3-3-3-3-3-3-2-|
E-1-1--1--3-3--3--1-1--1--3-3-3-3-3-3--1-1--1--3-3--3--3-3-3-3-3-3-3-3-|

Chorus
e-x--x--x--x--x----------x-x-x-x-x-x-x-x-x--x--x--x--x--x----------x-|
B-3--1--1--1--1----------0h1-1-0-0-1-0-1-0--3--1--1--1--1----------1-|
G-0--2--0--2--0----------0-0-0-0-0-0-0-0-0--0--2--0--2--0----------0-|
D-0--3--3--3--3--------0-0h2-2-0-0-2-0-2-0--0--3--3--3--3--------0-2-|
A-1--x--x--x--x----0h2---3-3-3-3-3-3-3-3-3--1--x--x--x--x----0h2---0-|
E-x--1--1--1--1--3-------3-3-3-3-3-3-3-3-3--x--1--1--1--1--3-------x-|

e-x--x--x--x--x----------x-x-x-x-x-x-x-x-x--x--x--x--x--x----------x-|
B-3--1--1--1--1----------0h1-1-0-0-1-0-1-0--3--1--1--1--1----------1-|
G-0--2--0--2--0----------0-0-0-0-0-0-0-0-0--0--2--0--2--0----------0-|
D-0--3--3--3--3--------0-0h2-2-0-0-2-0-2-0--0--3--3--3--3--------0-2-|
A-1--x--x--x--x----0h2---3-3-3-3-3-3-3-3-3--1--x--x--x--x----0h2---0-|
E-x--1--1--1--1--3-------3-3-3-3-3-3-3-3-3--x--1--1--1--1--3-------x-|

Outro
e-x--x--x--x--x----------x-x-x-x-x-x-x-x-x-|
B-3--1--1--1--1----------0h1-1-0-0-1-0-1-0-|
G-0--2--0--2--0----------0-0-0-0-0-0-0-0-0-|
D-0--3--3--3--3--------0-0h2-2-0-0-2-0-2-0-|
A-1--x--x--x--x----0h2---3-3-3-3-3-3-3-3-3-|
E-x--1--1--1--1--3-------3-3-3-3-3-3-3-3-3-|


e-x--x--x--x--x----------x-x-x-x-x-x-x-x-x-|
B-3--1--1--1--1----------0h1-1-0-0-1-0-1-0-|
G-0--2--0--2--0----------0-0-0-0-0-0-0-0-0-|
D-0--3--3--3--3--------0-0h2-2-0-0-2-0-2-0-|
A-1--x--x--x--x----0h2---3-3-3-3-3-3-3-3-3-|
E-x--1--1--1--1--3-------3-3-3-3-3-3-3-3-3-|

e-x--x--x--x--x----------x-x-|
B-3--1--1--1--1----------0h1-|
G-0--2--0--2--0----------0-0-|
D-0--3--3--3--3--------0-0h2-|
A-1--x--x--x--x----0h2---3-3-|
E-x--1--1--1--1--3-------3-3-|
Tap to rate this tab
 
# A B C D E F G H I J K L M N O P Q R S T U V W X Y Z