Song name
# A B C D E F G H I J K L M N O P Q R S T U V W X Y Z

Misc Unsigned Bands - Destined For December - Brighter Days tab

-------------------------------------------------------------------------------
			     Brighter Days - Destined For December
-------------------------------------------------------------------------------
Tabbed by: Justin Hall
Email: burst6518@yahoo.com
Facebook: facebook.com/dropdeadjustin

Tuning: Drop C

Intro

D|---------------------------------------------------------------------------|
A|---------------------------------------------------------------------------|
F|---------------------------------------------------------------------------|
C|5----------------------------------0---------------------------------------|
G|5----------------------------------0---------------------------------------|
C|5----------------------------------0---------------------------------------|

D|---------------------------------------------------------------------------|
A|---------------------------------------------------------------------------|
F|-----------------------------------5---------------------------------------|
C|5----------------------------------5--------------------Pickslide----------|
G|5----------------------------------3-------------------\\\\\\\\\\\\\\\\\\\\|
C|5------------------------------------------------------\\\\\\\\\\\\\\\\\\\\|

D|---------------------------------------------------------------------------|
A|---------------------------------------------------------------------------|
F|--------------------------------------------------5------------------------|
C|5-------3-------0------------------5-------3------5------------------------|
G|5-------3-------0------------------5-------3------3------------------------|
C|5-------3-------0------------------5-------3-------------------------------|

D|---------------------------------------------------------------------------|
A|---------------------------------------------------------------------------|
F|--------------------------------------------------5------------------------|
C|5-------3-------0------------------5-------3------5------------------------|
G|5-------3-------0------------------5-------3------3------------------------|
C|5-------3-------0------------------5-------3-------------------------------|

Verse Riff

D|---------------------------------------------------------------------|
A|---------------------------------------------------------------------|
F|---------------------------------------------------------------------|
C|----------------------------------------------------5----------------| x6
G|5---------3---0---0---------------5---------3---0---3----33333---3333|
C|5-----00003---0---0---00000---00005-----00003---0--------------------|
        ....            .....   ....      ....             .....   ....

Chorus Riff

D|---------------------------------------------------------------------------|
A|---------------------------------------------------------------------------|
F|7---7-----------------7-\-3-------7---7-----------------7-\-3--------------|
C|7---7 x5---3---3------7-\-5 x14---7---7 x5---3---3------7-\-5 x6-----------|
G|5---5------3---3 x5---5-\-5-------5---5------3---3 x5---5-\-5--------------|
C|-----------3---3-----------------------------3---3-------------------------|

D|-------------------------------------|
A|-------------------------------------|
F|-------------------------------------|
C|-------------------------------------| x2
G|5--3--0--5--3--0--5--3--0--5--3--0---| 
C|5--3--0--5--3--0--5--3--0--5--3--0---|
  .  .  .  .  .  .  .  .  .  .  .  .

Repeat Verse riff x4

Breakdown

D|------------------------|
A|-----------------14-----|
F|-----------------17-----|
C|0-----------------------|
G|0-----------------------|
C|0-----------------------|

D|----------------------------------------------------
A|----------------------------------------------------
F|----------------------------------------------------
C|----------------------------------------------------
G|0-0-----0-0-----0000000-----0-0-----0-0-----000000--
C|1-1-----1-1-----1111111-----1-1-----1-1-----111111--
  . .     . .     .......     . .     . .     ......

---------------------------14------------------------14---|
---------------------------17------------------------17---|
----------------------------------------------------------| 
----------------------------------------------------------| x2
-------0-0---0-0---------------0-0---0-0------------------|
-------0-0---0-0---------------0-0---0-0------------------|
       . .   . .               . .   . .

Repeat Chorus riff

Chorus harmonies/outro
One guitar does the chorus riff twice and the other guitar does this:

D|---------------------------------------------------------------------------|
A|---------------------------------------------------------------------------|
F|14---14-----------------14-\-12-------14---14-----------------14-\-12------|
C|14---14 x5---8---8------14-\-12 x14---14---14 x5---8---8------14-\-12 x6---|
G|12---12------8---8 x5---12-\-10-------12---12------8---8 x5---12-\-10------|
C|-------------8---8---------------------------------8---8-------------------|

D|-------------------------------------|
A|-------------------------------------|
F|-------------------------------------|
C|-------------------------------------| x2  But the last time do:  G|5--3--0--|  x8
G|5--3--0--5--3--0--5--3--0--5--3--0---|                            C|5--3--0--|
C|5--3--0--5--3--0--5--3--0--5--3--0---|                              .  .  .
  .  .  .  .  .  .  .  .  .  .  .  .

D|---------|
A|---------|
F|---------|
C|0--------|
G|0--------|
C|0--------|



************************************

| /   slide up
| \   slide down
| h   hammer-on
| p   pull-off
| ~   vibrato
| +   harmonic
| x   Mute note
| b   Bend
| pb  Pre-bend
| br  Bend release
| pbr Pre-bend release
| brb Bend release bend

************************************
Tap to rate this tab
 
# A B C D E F G H I J K L M N O P Q R S T U V W X Y Z