Misc Unsigned Bands - April Chase - All You Need To Say tab

All You Need To Say by April Chase
Tab by Christian Back

Intro/Post-Chorus x3
e|--4--4--x--6---|x3
B|--5--5--x--5---|
G|--6--6--x--4---|
D|--6--6--x--6---|
A|--4--4--x--4---|
E|---------------|

e|--4-4-4-4-|
B|--5-5-5-5-|
G|--6-4-6-4-|
D|--6-6-6-6-|
A|--4-4-4-4-|
E|----------|

e|-7-7-x-7--|x3
B|-7-7-x-7--|
G|-9-9-x-8--|
D|-9-9-x-9--|
A|-7-7-x-7--|
E|----------|

e|-7-7-7-7--|
B|-7-7-7-7--|
G|-9-8-9-8--|
D|-9-9-9-9--|
A|-7-7-7-7--|
E|----------|

Verse – Just use single strum of these two chords.

e|--4-----7---|
B|--5-----7---|
G|--6-----9---|
D|--6-----9---|
A|--4-----7---|
E|------------|

Pre-chorus (never speak of love, AGAINNNNN)[when you let the last chord ring, slide up 
before you move on to the chorus to get that crescendo effect]

e|--4--4--4--4--4--4—-2/----|
B|--4--4--4--4--4--4—-2/----|
G|--4--4--4--4--4--4—-2/----|
D|--6--6--6--6--6--6—-4/----|
A|--6--6--6--6--6--6—-4/----|
E|--4--4--4--4--4--4—-2/----|

Chorus (Listen to the song for the rhythm but here are the chords, after this go back to 
the intro)

e|--4--7--7--5--|
B|--5--7--7--5--|
G|--6--9--8--6--|
D|--6--9--9--7--|
A|--4--7--9--7--|
E|--------7--5--|




Notes: I know the intro has that little slide
e|--4-----6---|
B|--5-----7---|
G|--6-----8---|
D|--6-----8---|
A|--4-----6---|
E|------------| (or something like that, you get the jist)
But I didn’t figure out yet to see how that would sound good on one acoustic guitar 
since April Chase uses two guitars for this song, so I just do the simpler way on top.
If you need anything or got any advice lmk! Email: cveezy@gmail.com
Tap to rate this tab
 
# A B C D E F G H I J K L M N O P Q R S T U V W X Y Z