Misc Unsigned Bands - Synapsenkitzler - Frazy tab

-----------------------------------------------------------------------------
			     Frazy - Synapsenkitzler
-----------------------------------------------------------------------------
Tabbed by: Daniel H.
Email:     

Tuning: Standard

e|----------------------------------------------------|
B|------------------10------------------------10------|
G|-9--10--11--12-12----12----9--10--11--12-12----12---|
D|----------------------------------------------------|
A|----------------------------------------------------|
E|----------------------------------------------------|

e|-------------12-10----------------------------------|
B|-------------------13-12-10-------------------------|
G|-9--10--11------------------12-12-11-10-------------|
D|----------------------------------------------------|
A|----------------------------------------------------|
E|----------------------------------------------------|

e|----------------------------------------------------|
B|----------------------------------------------------|
G|---------9--10-10-12-10------------9--10-10-12-10---|
D|-12--12--------------------12--12-------------------|
A|----------------------------------------------------|
E|----------------------------------------------------|

e|------------10--------------------------------------|
B|---------------13-12-10-10--------------------------|
G|---------9-----------------12-12-11-12--------------|
D|-12--12---------------------------------------------|
A|----------------------------------------------------|
E|----------------------------------------------------|

e|----------------------------------------------------|
B|------------------10------------------------10------|
G|-9--10--11--12-12----12----9--10--11--12-12----12---|
D|----------------------------------------------------|
A|----------------------------------------------------|
E|----------------------------------------------------|

e|-------------12-10----------------------------------|
B|-------------------13-12-10-------------------------|
G|-9--10--11------------------12-12-11-10-------------|
D|----------------------------------------------------|
A|----------------------------------------------------|
E|----------------------------------------------------|

e|----------------------------------------------------|
B|----------------------------------------------------|
G|---------9--10-10-12-10------------9--10-10-12-10---|
D|-12--12--------------------12--12-------------------|
A|----------------------------------------------------|
E|----------------------------------------------------|

e|------------10-------10-----------------------------|
B|---------------13-12----13-13-13-13-13--------------|
G|---------9------------------------------------------|
D|-12--12---------------------------------------------|
A|----------------------------------------------------|
E|----------------------------------------------------|

e|--------------------------------10------------------|
B|-10-10-13---------13---12-12-13----13---------------|
G|------------12-12-----------------------------------|
D|----------------------------------------------------|
A|----------------------------------------------------|
E|----------------------------------------------------|

e|-----------------------10---------------------------|
B|-10-10-13---------13------13-12-10------------------|
G|------------12-12------------------12---------------|
D|----------------------------------------------------|
A|----------------------------------------------------|
E|----------------------------------------------------|

vary as you like and don't forget to repeat the whole song for several hours :)

have fun


************************************

| /   slide up
| \   slide down
| h   hammer-on
| p   pull-off
| ~   vibrato
| +   harmonic
| x   Mute note
| b   Bend
| pb  Pre-bend
| br  Bend release
| pbr Pre-bend release
| brb Bend release bend

************************************
Tap to rate this tab
 
# A B C D E F G H I J K L M N O P Q R S T U V W X Y Z