Song name
# A B C D E F G H I J K L M N O P Q R S T U V W X Y Z

Misc Unsigned Bands - Coat Of Arms - Open The Dams tab

Song: OPEN THE DAMS
Artist: COAT OF ARMS
Album: Inheritance (2010)

Music Video: http://www.youtube.com/watch?v=jugOh4ValvQ&feature=channel_video_title
Fb Fanpage: www.facebook.com/coatofarmsband
Youtube Channel: www.youtube.com/user/coatofarmsband

OPEN THE DAMS
Tempo = 125bpm (4/4 Time signature)
Bailouni
                                PM PM PM PM PM PM PM PM     PM PM      
     Q    Q    Q    Q       S S S  S  S  S  S  S  S  S  S S S  S  S S  
D||----------------------|--------------------------------------------|
A||----------------------|--------------------------------------------|
F||----------------------|--------------------------------------------|
C||----------------------|--------------------------------------------|
G||----------------------|--5-7---------------------------------------|
C||----------------------|------2--2--2--2--2--2--2--2--5-2-2--2--0-2-|


  PM PM         PM PM                        PM PM PM     PM      
  S  S  S S S S S  S  S S S S S S E     Q    E  E  E   E  E   E   
-------------------------------------|---------------------------|
-------------------------------------|---------------------------|
-------------------------------------|---------------------------|
----------------------------5--------|--9-------------12-----11--|
----------------------0-5-9---9-5-7--|--5----5--5--5---9--9---7--|
--2--2--5-2-5-2-2--2--------------7--|--5----5--5--5---9--9---7--|


                                  PM PM PM PM PM PM PM PM     PM PM      
  E  E  E  E  E  E  E   E     S S S  S  S  S  S  S  S  S  S S S  S  S S  
---------------------------|--------------------------------------------|
---------------------------|--------------------------------------------|
---------------------------|--------------------------------------------|
--L-----------7-----7------|--------------------------------------------|
--L--7--7--7--4--4--4s-----|--5-7---------------------------------------|
--L--7--7--7--4--4--4---L--|------2--2--2--2--2--2--2--2--5-2-2--2--0-2-|


  PM PM         PM PM                        PM PM PM     PM      
  S  S  S S S S S  S  S S S S S S E     Q    E  E  E   E  E   E   
-------------------------------------|---------------------------|
-------------------------------------|---------------------------|
-------------------------------------|---------------------------|
----------------------------5--------|--9-------------12-----11--|
----------------------0-5-9---9-5-7--|--5----5--5--5---9--9---7--|
--2--2--5-2-5-2-2--2--------------7--|--5----5--5--5---9--9---7--|


  E  E  E  E   E  E   E   E     E  E  E  S   E  S  E   E  E   
-----------------------------|-------------------------------|
-----------------------------|-------------------------------|
-----------------------------|-----------9s-11--L-12--11--9--|
--L-----------12-----12------|--7--9--L----------------------|
--L--7--7--7---9--9---9s-----|-------------------------------|
--L--7--7--7---9--9---9---L--|-------------------------------|


  E  T T  S  E  E   E   E  T  T S E     E  E  E  S   E  S  E   E  E   
-------------------------------------|-------------------------------|
-------------------------------------|-------------------------------|
--L-------------9--------------------|-----------9s-11--L-12--11--9--|
-----0-9-11-12-----12--11--9-11-9-7--|--7--9--L----------------------|
-------------------------------------|-------------------------------|
-------------------------------------|-------------------------------|


  E  T T  S  E  E   E   E    Q        E  E  E  S   E  S  E   E  E   
-----------------------------------|-------------------------------|
-----------------------------------|-------------------------------|
--L-------------9------------------|-----------9s-11--L-12--11--9--|
-----0-9-11-12-----12--11--<>9~----|--7--9--L----------------------|
-----------------------------------|-------------------------------|
-----------------------------------|-------------------------------|


  E  T T  S  E  E   E   E  T  T S E     E  E  E  S   E  S  E   E  E   
-------------------------------------|-------------------------------|
-------------------------------------|-------------------------------|
--L-------------9--------------------|-----------9s-11--L-12--11--9--|
-----0-9-11-12-----12--11--9-11-9-7--|--7--9--L----------------------|
-------------------------------------|-------------------------------|
-------------------------------------|-------------------------------|


  E  T T  S  E  E   E   E    Q      
-----------------------------------|
-----------------------------------|
--L-------------9------------------|
-----0-9-11-12-----12--11--<>9~----|
-----------------------------------|
-----------------------------------|


      PM PM PM PM PM PM PM PM     PM PM      
  S S S  S  S  S  S  S  S  S  S S S  S  S S  
--------------------------------------------|
--------------------------------------------|
--------------------------------------------|
--------------------------------------------|
--5-7---------------------------------------|
------2--2--2--2--2--2--2--2--5-2-2--2--0-2-|


  PM PM         PM PM                        PM PM PM     PM      
  S  S  S S S S S  S  S S S S S S E     Q    E  E  E   E  E   E   
-------------------------------------|---------------------------|
-------------------------------------|---------------------------|
-------------------------------------|---------------------------|
----------------------------5--------|--9-------------12-----11--|
----------------------0-5-9---9-5-7--|--5----5--5--5---9--9---7--|
--2--2--5-2-5-2-2--2--------------7--|--5----5--5--5---9--9---7--|


                                  PM PM PM PM PM PM PM PM     PM PM      
  E  E  E  E  E  E  E   E     S S S  S  S  S  S  S  S  S  S S S  S  S S  
---------------------------|--------------------------------------------|
---------------------------|--------------------------------------------|
---------------------------|--------------------------------------------|
--L-----------7-----7------|--------------------------------------------|
--L--7--7--7--4--4--4s-----|--5-7---------------------------------------|
--L--7--7--7--4--4--4---L--|------2--2--2--2--2--2--2--2--5-2-2--2--0-2-|


  PM PM         PM PM                        PM PM PM     PM      
  S  S  S S S S S  S  S S S S S S E     Q    E  E  E   E  E   E   
-------------------------------------|---------------------------|
-------------------------------------|---------------------------|
-------------------------------------|---------------------------|
----------------------------5--------|--9-------------12-----11--|
----------------------0-5-9---9-5-7--|--5----5--5--5---9--9---7--|
--2--2--5-2-5-2-2--2--------------7--|--5----5--5--5---9--9---7--|


  E  E  E  E   E  E   E   E     E  E  E  S   E  S  E   E  E   
-----------------------------|-------------------------------|
-----------------------------|-------------------------------|
-----------------------------|-----------9s-11--L-12--11--9--|
--L-----------12-----12------|--7--9--L----------------------|
--L--7--7--7---9--9---9s-----|-------------------------------|
--L--7--7--7---9--9---9---L--|-------------------------------|


  E  T T  S  E  E   E   E  T  T S E     E  E  E  S   E  S  E   E  E   
-------------------------------------|-------------------------------|
-------------------------------------|-------------------------------|
--L-------------9--------------------|-----------9s-11--L-12--11--9--|
-----0-9-11-12-----12--11--9-11-9-7--|--7--9--L----------------------|
-------------------------------------|-------------------------------|
-------------------------------------|-------------------------------|


  E  T T  S  E  E   E   E    Q        E  E  E  S   E  S  E   E  E   
-----------------------------------|-------------------------------|
-----------------------------------|-------------------------------|
--L-------------9------------------|-----------9s-11--L-12--11--9--|
-----0-9-11-12-----12--11--<>9~----|--7--9--L----------------------|
-----------------------------------|-------------------------------|
-----------------------------------|-------------------------------|


  E  T T  S  E  E   E   E  T  T S E     E  E  E  S   E  S  E   E  E   
-------------------------------------|-------------------------------|
-------------------------------------|-------------------------------|
--L-------------9--------------------|-----------9s-11--L-12--11--9--|
-----0-9-11-12-----12--11--9-11-9-7--|--7--9--L----------------------|
-------------------------------------|-------------------------------|
-------------------------------------|-------------------------------|


                                       CLEAN SECTION                         
                                       ^                   ^                 
  E  T T  S  E  E   E   E    Q         W                   W                 
-----------------------------------|---0----------------|--0----------------|
-----------------------------------|---8----------------|--3----------------|
--L-------------9------------------|--11----------------|--0----------------|
-----0-9-11-12-----12--11--<>9~----|---9----------------|--4----------------|
-----------------------------------|---7----------------|--2----------------|
-----------------------------------|---7----------------|--2----------------|


  ^                   ^                                                    
  W                   W                    E   E   E   E   E   E   E   E   
--0----------------|--0----------------|----------------------------------|
--7----------------|--0----------------|----------------------------------|
--0----------------|--7----------------|--12--12--12--12--12--12--12--12--|
--7----------------|--4----------------|--12--12--12--12--12--12--12--12--|
--5----------------|--0----------------|--10--10--10--10--10--10--10--10--|
--5----------------|--0----------------|----------------------------------|


   E   E   E   E   E   E   E   E      E   E   E   E   E   E   E   E   
----------------------------------|----------------------------------|
----------------------------------|----------------------------------|
--11--11--11--11--11--11--11--11--|----------------------------------|
--12--12--12--12--12--12--12--12--|--12--12--12--12--12--12--12--12--|
--10--10--10--10--10--10--10--10--|--10--10--10--10--10--10--10--10--|
----------------------------------|--10--10--10--10--10--10--10--10--|


   E   E   E   E   E   E   E   E     E  E  E  E  E  E  E  E   
----------------------------------|--------------------------|
----------------------------------|--------------------------|
----------------------------------|--------------------------|
--12--12--12--12--12--12--12--12--|--------------------------|
--10--10--10--10--10--10--10--10--|--0--0--0--0--0--0--0--0--|
--10--10--10--10--10--10--10--10--|--0--0--0--0--0--0--0--0--|


  E  E  E  E  E  E  E  E     E  E  E  E  E  E  E  E   
--------------------------|--------------------------|
--------------------------|--------------------------|
--------------------------|--------------------------|
--------------------------|--------------------------|
--0--0--0--0--0--0--0--0--|--2--2--2--2--2--2--2--2--|
--0--0--0--0--0--0--0--0--|--2--2--2--2--2--2--2--2--|


  E  E  E  E  E  E  E  E      E   E   E   E   E   E   E   E   
--------------------------|----------------------------------|
--------------------------|----------------------------------|
--------------------------|--12--12--12--12--12--12--12--12--|
--------------------------|--12--12--12--12--12--12--12--12--|
--5--5--5--5--5--5--5--5--|--10--10--10--10--10--10--10--10--|
--5--5--5--5--5--5--5--5--|----------------------------------|


   E   E   E   E   E   E   E   E      E   E   E   E   E   E   E   E   
----------------------------------|----------------------------------|
----------------------------------|----------------------------------|
--11--11--11--11--11--11--11--11--|----------------------------------|
--12--12--12--12--12--12--12--12--|--12--12--12--12--12--12--12--12--|
--10--10--10--10--10--10--10--10--|--10--10--10--10--10--10--10--10--|
----------------------------------|--10--10--10--10--10--10--10--10--|


   E   E   E   E   E   E   E   E     E  E  E  E  E  E  E  E   
----------------------------------|--------------------------|
----------------------------------|--------------------------|
----------------------------------|--------------------------|
--12--12--12--12--12--12--12--12--|--------------------------|
--10--10--10--10--10--10--10--10--|--0--0--0--0--0--0--0--0--|
--10--10--10--10--10--10--10--10--|--0--0--0--0--0--0--0--0--|


  E  E  E  E  E  E  E  E     E  E  E  E  E  E  E  E   
--------------------------|--------------------------|
--------------------------|--------------------------|
--------------------------|--------------------------|
--------------------------|--------------------------|
--0--0--0--0--0--0--0--0--|--2--2--2--2--2--2--2--2--|
--0--0--0--0--0--0--0--0--|--2--2--2--2--2--2--2--2--|


                              CLEAN SECTION                         
                              ^                   ^                 
  E  E  E  E  E  E  E  E      W                   W                 
--------------------------|---0----------------|--0----------------|
--------------------------|---8----------------|--3----------------|
--------------------------|--11----------------|--0----------------|
--------------------------|---9----------------|--4----------------|
--5--5--5--5--5--5--5--5--|---7----------------|--2----------------|
--5--5--5--5--5--5--5--5--|---7----------------|--2----------------|


  ^                   ^                    ^                 
  W                   W                    W                 
--0----------------|--0----------------|---0----------------|
--7----------------|--0----------------|---8----------------|
--0----------------|--7----------------|--11----------------|
--7----------------|--4----------------|---9----------------|
--5----------------|--0----------------|---7----------------|
--5----------------|--0----------------|---7----------------|


  ^                   ^                   ^                 
  W                   W                   W                 
--0----------------|--0----------------|--0----------------|
--3----------------|--7----------------|--0----------------|
--0----------------|--0----------------|--7----------------|
--4----------------|--7----------------|--4----------------|
--2----------------|--5----------------|--0----------------|
--2----------------|--5----------------|--0----------------|


  PM PM     PM     PM PM              PM     PM  PM  PM         
  E  E   E  E   E  E  E   S  S     E  E   E  E   E   E  E   E   
-------------------------------|-------------------------------|
-------------------------------|-------------------------------|
--------11-----11--------11-12-|--11-----11-------------9--11--|
--7--9------9------9--9--------|------9------9--12--12---------|
-------------------------------|-------------------------------|
-------------------------------|-------------------------------|


  PM PM     PM     PM PM              PM     PM  PM  PM         
  E  E   E  E   E  E  E   S  S     E  E   E  E   E   E  E   E   
-------------------------------|-------------------------------|
-------------------------------|-------------------------------|
--------11-----11--------11-12-|--11-----11-------------9--11--|
--7--9------9------9--9--------|------9------9--12--12---------|
-------------------------------|-------------------------------|
-------------------------------|-------------------------------|


  PM PM     PM     PM PM              PM     PM  PM  PM         
  E  E   E  E   E  E  E   S  S     E  E   E  E   E   E  E   E   
-------------------------------|-------------------------------|
-------------------------------|-------------------------------|
--------11-----11--------11-12-|--11-----11-------------9--11--|
--7--9------9------9--9--------|------9------9--12--12---------|
-------------------------------|-------------------------------|
-------------------------------|-------------------------------|


  PM PM     PM     PM PM              PM     PM  PM  PM         
  E  E   E  E   E  E  E   S  S     E  E   E  E   E   E  E   E   
-------------------------------|-------------------------------|
-------------------------------|-------------------------------|
--------11-----11--------11-12-|--11-----11-------------9--11--|
--7--9------9------9--9--------|------9------9--12--12---------|
-------------------------------|-------------------------------|
-------------------------------|-------------------------------|


   E   E   E   E   E   E   E   E      E   E   E   E   E   E   E   E   
----------------------------------|----------------------------------|
----------------------------------|----------------------------------|
--12--12--12--12--12--12--12--12--|--11--11--11--11--11--11--11--11--|
--12--12--12--12--12--12--12--12--|--12--12--12--12--12--12--12--12--|
--10--10--10--10--10--10--10--10--|--10--10--10--10--10--10--10--10--|
----------------------------------|----------------------------------|


   E   E   E   E   E   E   E   E      E   E   E   E   E   E   E   E   
----------------------------------|----------------------------------|
----------------------------------|----------------------------------|
----------------------------------|----------------------------------|
--12--12--12--12--12--12--12--12--|--12--12--12--12--12--12--12--12--|
--10--10--10--10--10--10--10--10--|--10--10--10--10--10--10--10--10--|
--10--10--10--10--10--10--10--10--|--10--10--10--10--10--10--10--10--|


  E  E  E  E  E  E  E  E     E  E  E  E  E  E  E  E   
--------------------------|--------------------------|
--------------------------|--------------------------|
--------------------------|--------------------------|
--------------------------|--------------------------|
--0--0--0--0--0--0--0--0--|--0--0--0--0--0--0--0--0--|
--0--0--0--0--0--0--0--0--|--0--0--0--0--0--0--0--0--|


  E  E  E  E  E  E  E  E     E  E  E  E  E  E  E  E   
--------------------------|--------------------------|
--------------------------|--------------------------|
--------------------------|--------------------------|
--------------------------|--------------------------|
--2--2--2--2--2--2--2--2--|--5--5--5--5--5--5--5--5--|
--2--2--2--2--2--2--2--2--|--5--5--5--5--5--5--5--5--|


   E   E   E   E   E   E   E   E      E   E   E   E   E   E   E   E   
----------------------------------|----------------------------------|
----------------------------------|----------------------------------|
--12--12--12--12--12--12--12--12--|--11--11--11--11--11--11--11--11--|
--12--12--12--12--12--12--12--12--|--12--12--12--12--12--12--12--12--|
--10--10--10--10--10--10--10--10--|--10--10--10--10--10--10--10--10--|
----------------------------------|----------------------------------|


   E   E   E   E   E   E   E   E      E   E   E   E   E   E   E   E   
----------------------------------|----------------------------------|
----------------------------------|----------------------------------|
----------------------------------|----------------------------------|
--12--12--12--12--12--12--12--12--|--12--12--12--12--12--12--12--12--|
--10--10--10--10--10--10--10--10--|--10--10--10--10--10--10--10--10--|
--10--10--10--10--10--10--10--10--|--10--10--10--10--10--10--10--10--|


  E  E  E  E  E  E  E  E     E  E  E  E  E  E  E  E   
--------------------------|--------------------------|
--------------------------|--------------------------|
--------------------------|--------------------------|
--------------------------|--------------------------|
--0--0--0--0--0--0--0--0--|--0--0--0--0--0--0--0--0--|
--0--0--0--0--0--0--0--0--|--0--0--0--0--0--0--0--0--|


  E  E  E  E  E  E  E  E     E  E  E  E  E  E  E  E   
--------------------------|--------------------------|
--------------------------|--------------------------|
--------------------------|--------------------------|
--------------------------|--------------------------|
--2--2--2--2--2--2--2--2--|--5--5--5--5--5--5--5--5--|
--2--2--2--2--2--2--2--2--|--5--5--5--5--5--5--5--5--|


  E  E  E  S   E  S  E   E  E     E  T T  S  E  E   E   E  T  T S E   
-------------------------------|-------------------------------------|
-------------------------------|-------------------------------------|
-----------9s-11--L-12--11--9--|--L-------------9--------------------|
--7--9--L----------------------|-----0-9-11-12-----12--11--9-11-9-7--|
-------------------------------|-------------------------------------|
-------------------------------|-------------------------------------|


  E  E  E  S   E  S  E   E  E     E  T T  S  E  E   E   E    Q      
-------------------------------|-----------------------------------|
-------------------------------|-----------------------------------|
-----------9s-11--L-12--11--9--|--L-------------9------------------|
--7--9--L----------------------|-----0-9-11-12-----12--11--<>9~----|
-------------------------------|-----------------------------------|
-------------------------------|-----------------------------------|


  E  E  E  S   E  S  E   E  E     E  T T  S  E  E   E   E  T  T S E   
-------------------------------|-------------------------------------|
-------------------------------|-------------------------------------|
-----------9s-11--L-12--11--9--|--L-------------9--------------------|
--7--9--L----------------------|-----0-9-11-12-----12--11--9-11-9-7--|
-------------------------------|-------------------------------------|
-------------------------------|-------------------------------------|


  E  E  E  S   E  S  E   E  E     E  T T  S  E  E   E   E    Q      
-------------------------------|-----------------------------------|
-------------------------------|-----------------------------------|
-----------9s-11--L-12--11--9--|--L-------------9------------------|
--7--9--L----------------------|-----0-9-11-12-----12--11--<>9~----|
-------------------------------|-----------------------------------|
-------------------------------|-----------------------------------|


  E  E  E  S   E  S  E   E  E     E  T T  S  E  E   E   E  T  T S E   
-------------------------------|-------------------------------------|
-------------------------------|-------------------------------------|
-----------9s-11--L-12--11--9--|--L-------------9--------------------|
--7--9--L----------------------|-----0-9-11-12-----12--11--9-11-9-7--|
-------------------------------|-------------------------------------|
-------------------------------|-------------------------------------|


  E  E  E  S   E  S  E   E  E     E  T T  S  E  E   E   E    Q      
-------------------------------|-----------------------------------|
-------------------------------|-----------------------------------|
-----------9s-11--L-12--11--9--|--L-------------9------------------|
--7--9--L----------------------|-----0-9-11-12-----12--11--<>9~----|
-------------------------------|-----------------------------------|
-------------------------------|-----------------------------------|


  E  E  E  S   E  S  E   E  E     E  T T  S  E  E   E   E  T  T S E   
-------------------------------|-------------------------------------|
-------------------------------|-------------------------------------|
-----------9s-11--L-12--11--9--|--L-------------9--------------------|
--7--9--L----------------------|-----0-9-11-12-----12--11--9-11-9-7--|
-------------------------------|-------------------------------------|
-------------------------------|-------------------------------------|


  E  E  E  S   E  S  E   E  E     E  T T  S  E  E   E   E    Q      
-------------------------------|-----------------------------------|
-------------------------------|-----------------------------------|
-----------9s-11--L-12--11--9--|--L-------------9------------------|
--7--9--L----------------------|-----0-9-11-12-----12--11--<>9~----|
-------------------------------|-----------------------------------|
-------------------------------|-----------------------------------|


  W                   W                   W                   W                 
-------------------|-------------------|-------------------|-------------------|
-------------------|-------------------|-------------------|-------------------|
-------------------|-------------------|-------------------|-------------------|
--2----------------|--L----------------|--L----------------|--L----------------|
--2----------------|--L----------------|--L----------------|--L----------------|
--2----------------|--L----------------|--L----------------|--L----------------|


  W                                      
-------------------|-------------------||
-------------------|-------------------||
-------------------|-------------------||
--L----------------|-------------------||
--L----------------|-------------------||
--L----------------|-------------------||




Duration Legend
---------------
W - whole
H - half
Q - quarter
E - 8th
S - 16th
T - 32nd
X - 64th
. - note dotted
|-n-|  - n-tuplets


Tablature Legend
----------------
L - tied note
x - dead note
g - grace note
(n) - ghost note
> - accentuded note
NH - natural harmonic
AH - artificial harmonic
TH - tapped harmonic
SH - semi harmonic
PH - pitch harmonic
h - hammer on
p - pull off
b - bend
br - bendRelease
pb - preBend
pbr - preBendRelease
brb - bendReleaseBend
\n/ - tremolo bar dip
\n - tremolo bar dive
-/n - tremolo bar Release up
/n\ - tremolo bar inverted dip
/n - tremolo bar return
-\n - tremolo bar Release down
S - shift slide
s - legato slide
/ -  slide into from below or out of upwards
\ -  slide into from above or out of downwards
~ - vibrato
W - wide vibrato
tr - trill
TP - tremolo picking
T - tapping
S - slap
P - pop
< - fade in
^ - brush up
v - brush down
Tap to rate this tab
 
# A B C D E F G H I J K L M N O P Q R S T U V W X Y Z