Misc Unsigned Bands - A Dime A Day - Without A Doubt tab

Without A Doubt by A Dime A Day (Standard Tuning)

Intro

Guitar 1:
|--------------------------------------------------------------|
|--------------------------------------------------------------|
|----------1-------------1---------------1-------------1-------|
|------2-------2-----2-------2-------2-------2-----2-------2---|
|--2-2---2---2---2-2---2---2---2-0-0---0---0---0-0---0---0---0-|
|--------------------------------------------------------------|

Guitar 2 (Comes in the second time of Guitar 1):
|------------------|
|------------------|
|--4---------------|
|----6h7--6---6h7--|
|-----------7------|
|------------------|

Verse:

Guitar 1:
|------------------------------------------------------------------|
|--9-9---9------------------9-9---9-12-10---9-9---9----------------|
|------9---9---9----------------9---------------9---9---9----------|
|------------9---9-6h7--------------------------------9---9-6h7----|
|-----------------------7----------------------------------------7-|
|------------------------------------------------------------------|

|--------------------------7--------|
|--9-9---9---7-9p7-------9---9p7----|
|------9---9--------9-------------9-|
|-----------------------------------|
|-----------------------------------|
|-----------------------------------|


Chorus:

Guitar 1:
|----7-------------7------------------|
|--9---10---10-9-9---10-----9---10-9--|
|---------9-------------9-9---9-------|
|-------------------------------------|
|-------------------------------------|
|-------------------------------------| x2

|--------------------------|
|--7-9-10-9-----9---10-----|
|-----------9-9---9----9-9-|
|--------------------------|
|--------------------------|
|--------------------------|

Bridge:

Guitar 1:

|--------------------------|
|--7-9-10-9-----9---10-----|
|-----------9-9---9----9-9-|
|--------------------------|
|--------------------------|
|--------------------------|
Tap to rate this tab
 
# A B C D E F G H I J K L M N O P Q R S T U V W X Y Z