Song name
# A B C D E F G H I J K L M N O P Q R S T U V W X Y Z

Misc Unsigned Bands - Meet The Engineer - More Gun tab

*i did not write this song it belongs to someone else and whatever*

MEET THE ENGINEER SONG

tabbed by fps_noobkiller

/ - slide
h - hammer on
^ - bend
 

|-------------------------------------------|
|----------2-2-2-2---2-2-2-2---2-2-2-2------|
|----------2-2-2-2---2-2-2-2---2-2-2-2------|
|----------2-2-2-2---2-2-2-2---2-2-2-2------|
|-------0--------------------0--------------|
|-0-2-4------------0------------------------|

Do this 2 times, ok?

on the third time do this plz

|-----------------------------------------------------------|
|---------2-2-2-2------2-2-----2-2-2-2---2-2-2-2---2-2-2-2--|
|---------2-2-2-2------2-2-----2-2-2-2---2-2-2-2---2-2-2-2--|
|---------2-2-2-2--2h4-----2---2-2-2-2---2-2-2-2---2-2-2-2--|
|-------0--------------------0-------------------0----------|
|-0-2-4--------------------------------0--------------------|

then it all goez 2 the D and stuff, but he stops playing in the video so i just 
made a fill from D to A so the song doesnt have to stop.

|------------2-2-2-2---2-2-2-2---2-2-2-2--|
|------------3-3-3-3---3-3-3-3---3-3-3-3--|
|------------2-2-2-2---2-2-2-2---2-2-2-2--|
|-2h4-2----0-------------------0----------|
|-0---0-4------------0--------------------|
|-----------------------------------------|


|----------------------------------------|
|---------2-2-2-2---2-2-2-2---2-2-2-2----|
|---------2-2-2-2---2-2-2-2---2-2-2-2----|
|---------2-2-2-2---2-2-2-2---2-2-2-2----|
|-0-2-4-0-------------------0------------|
|-----------------0----------------------|

           E-maj
|--------------------------------------|
|---------0-0-0-0---0-0-0-0---0-0-0-0--|
|---------1-1-1-1---1-1-1-1---1-1-1-1--|
|-2-0-----2-2-2-2---2-2-2-2---2-2-2-2--|
|-----4-----------2--------------------|
|-------0-------------------0----------|

it kidna changes and gets weird here, so pay attention ok plz
|-----------------------------------------------------------|
|----------2-2-2-2---2-2-2-2---2-2-2-2---2-2-2-2---2-2-2-2--|
|----------2-2-2-2---2-2-2-2---2-2-2-2---2-2-2-2---2-2-2-2--|
|----------2-2-2-2---2-2-2-2---2-2-2-2---2-2-2-2---2-2-2-2--|
|-------0--------------------0-------------------0----------|
|-0-2-4------------0-------------------0--------------------|

he stops again on this next part too, but you dont have to cuz you're not watching 
someone get blown up.

|----------2-2-2-2---2-2-2-2---2-2-2-2---2-2-2-2---2-2-2-2---2-2-2-2---2-2-2-2--|
|----------3-3-3-3---3-3-3-3---3-3-3-3---3-3-3-3---3-3-3-3---3-3-3-3---3-3-3-3--|
|----------2-2-2-2---2-2-2-2---2-2-2-2---2-2-2-2---2-2-2-2---2-2-2-2---2-2-2-2--|
|--------0-------------------0-------------------0---------4---------0----------|
|-0-2-4------------0-------------------0----------------------------------------|
|-------------------------------------------------------------------------------|

|-----------------------------------------------------2-2-2-2-----------------------------|
|-----------2-2-2-2---2-2-2-2---2-2-2-2---2-2-2-2-----3-3-3-3---------2-2-2-2---2-2-2--2--|
|-2h4-2-----2-2-2-2---2-2-2-2---2-2-2-2---2-2-2-2-----2-2-2-2---------2-2-2-2---2-2-2--2--|
|-0---0-4---2-2-2-2---2-2-2-2---2-2-2-2---2-2-2-2---0-----------------2-2-2-2---2-2-2--2--|
|---------0-------------------0-------------------------------------0------------------0--|
|-------------------0-------------------0---------------------0-2-4-----------0-----------|

"and you best hope.. not pointed at you"

Guitar 1
|-------------------------------------------------|
|----2-2-2-2-2---2-2-2-2---2-2-2-2---2-2-2-2------|
|----2-2-2-2-2---2-2-2-2---2-2-2-2---2-2-2-2------|
|----2-2-2-2-2---2-2-2-2---2-2-2-2---2-2-2-2------|
|----0-------------------0--------------------0~--|
|-3^-----------0-------------------0--------------|

Guitar 2
|----------------|
|----------------|
|----------------|
|----------------|
|-----------7-6~-|
|--5--7^8-5------|

EASY AS THAT!!
Tap to rate this tab
 
# A B C D E F G H I J K L M N O P Q R S T U V W X Y Z