Misc Unsigned Bands - Recall - Etota Bhalobashi tab

It took me some time to figure out the whole song.

The whole song is covered using just 3 chords - E, B and A
But there is a slight twist.

E-  022100
B*- 004440
A-  002220
B-  004442


E                    B*
  Jokhon nijhum raate, shob kichu chup

A                          B*       B
  Nishpran nogorite, jhijhirao ghum..


Chorus -

   E     B* A  B*-B
Etota Bhalobashi..



Now, for the plucking..

The song starts like this..


      E        B*             A             B*      B
e|-----0--|-----0---|-----0--------0----|-----0----2-----|
B|--------|---------|------2--------2---|--------4-------|
G|--------|----4----|----2--2-----2--2--|----4-----------|
D|----2---|---4-----|---2----2---2----2-|---4------------|
A|---2----|-0-------|-0--------0--------|-0--------------|
E|-0------|---------|-------------------|----------------|


And the chorus..


     E        B*       A      B
e|-----0--|-----0--|-----0-----2---|
B|--------|--------|--------4------|
G|--------|----4---|----2----------|
D|----2---|---4----|---2-----------|
A|---2----|-0------|-0-------------|
E|-0------|--------|---------------|
Tap to rate this tab
 
# A B C D E F G H I J K L M N O P Q R S T U V W X Y Z