Misc Unsigned Bands - Show Me The Skyline - More More More tab

-------------------------------------------------------------------------------
			     More More More - Show Me The Skyline
-------------------------------------------------------------------------------
Tabbed by: ebayhi
Email: need535@comcast.net

Tuning: Standard

Intro:
e|-----------------------------------------------------------------|
B|-----------------------------------------------------------------|
G|--7--------------------------------------------------------------|   (x2)
D|--7-(x5)--7-------5----------------------------------------------|
A|--5-------7-(x2)--5-(x2)-----------------------------------------|
E|----------5-------3----------------------------------------------|

Verse One:
e|-----------------------------------------------------------------|
B|-----------------------------------------------------------------|
G|--7--------------------------------------------------------------|   (x4)
D|--7-(x5)--7-------5----------------------------------------------|
A|--5-------7-(x2)--5-(x2)-----------------------------------------|
E|----------5-------3----------------------------------------------|

Pre-Chorus:
e|-----------------------------------------------------------------|
B|-----------------------------------------------------------------|
G|-----------------------------------------------------------------|
D|--9-------7-------9-------7--------------------------------------|
A|--9-(x8)--7-(x8)--9-(x8)--7-(x6)---------------------------------|
E|--7-------5-------7-------5--------------------------------------|

Chorus/Post-Chorus:
e|-----------------------------------------------------------------|
B|-----------------------------------------------------------------|
G|--7--------------------------------------------------------------|   (x6)
D|--7-(x8)--7-------5----------------------------------------------|
A|--5-------7-(x4)--5-(x2)-----------------------------------------|
E|----------5-------3----------------------------------------------|


Verse Two:
e|-----------------------------------------------------------------|
B|-----------------------------------------------------------------|
G|--7--------------------------------------------------------------|   (x4)
D|--7-(x5)--7-------5----------------------------------------------|
A|--5-------7-(x2)--5-(x2)-----------------------------------------|
E|----------5-------3----------------------------------------------|

Pre-Chorus:
e|-----------------------------------------------------------------|
B|-----------------------------------------------------------------|
G|-----------------------------------------------------------------|
D|--9-------7-------9-------7--------------------------------------|
A|--9-(x8)--7-(x8)--9-(x8)--7-(x6)---------------------------------|
E|--7-------5-------7-------5--------------------------------------|

Chorus/Post-Chorus:
e|-----------------------------------------------------------------|
B|-----------------------------------------------------------------|
G|--7--------------------------------------------------------------|   (x6)
D|--7-(x8)--7-------5----------------------------------------------|
A|--5-------7-(x4)--5-(x2)-----------------------------------------|
E|----------5-------3----------------------------------------------|

Bridge:
e|-----------------------------------------------------------------|
B|-----------------------------------------------------------------|
G|-------------------7---------------------------------------------|   (x2)
D|--9--------5-------7-------7-------------------------------------|
A|--9-(x8)---5-(x8)--5-(x8)--7-(x8)--------------------------------|
E|--7--------3---------------5-------------------------------------|

Chorus/Post-Chorus:
e|-----------------------------------------------------------------|
B|-----------------------------------------------------------------|
G|--7--------------------------------------------------------------|   (x8)
D|--7-(x8)--7-------5----------------------------------------------|
A|--5-------7-(x4)--5-(x2)-----------------------------------------|
E|----------5-------3----------------------------------------------|

Outro:
e|-----------------------------------------------------------------|
B|-----------------------------------------------------------------|
G|--7--------------------------------------------------------------|
D|--7-(x5)--7-------5----------------------------------------------|
A|--5-------7-(x2)--5-(x2)-----------------------------------------|
E|----------5-------3----------------------------------------------|

e|-----------------------------------------------------------------|
B|-----------------------------------------------------------------|
G|--7--------------------------------------------------------------|
D|--7-(x5)--7-------5----------------------------------------------|
A|--5-------7-(x2)--5----------------------------------------------|
E|----------5-------3----------------------------------------------|



************************************

| /   slide up
| \   slide down
| h   hammer-on
| p   pull-off
| ~   vibrato
| +   harmonic
| x   Mute note
| b   Bend
| pb  Pre-bend
| br  Bend release
| pbr Pre-bend release
| brb Bend release bend

************************************
Tap to rate this tab
 
# A B C D E F G H I J K L M N O P Q R S T U V W X Y Z