Song name
# A B C D E F G H I J K L M N O P Q R S T U V W X Y Z

Misc Unsigned Bands - Like Lions Do - Wreckage tab

LIKE LIONS DO - WRECKAGE GUITAR TABS

Tuning: Drop C.


D|----------------------------|
A|----------------------------|
F|----------------------------|
C|-00-0-00-0-00-0-0-00000000--|
G|-00-0-00-0-00-0-0-00000000--|
C|-11-1-11-1-11-1-1-11111111--|

D|----------------------------|
A|----------------------------|
F|----------------------------|
C|-00-0-00-0-00-0-0-00000000--|
G|-00-0-00-0-00-0-0-00000000--|
C|-11-1-11-1-11-1-1-00000000--|

(repeat)

D|----------------------------|
A|----------------------------|
F|----------------------------|
C|-6-000-4-000000-000---------|
G|-6-000-4-000000-000---------|
C|-6-000-4-000000-333---------|

D|----------------------------|
A|----------------------------|
F|----------------------------|
C|-6-000-4-000000-000---------|
G|-6-000-4-000000-000---------|
C|-6-000-4-000000-111---------|

(repeat)

D|----------------------------|
A|----------------------------|
F|----------------------------|
C|-0-0000-0-00000000000-------|
G|-0-0000-0-00000000000-------|
C|-0-0000-0-00011111111-------|

D|----------------------------|
A|----------------------------|
F|----------------------------|
C|-0-0000-0-0000--------------|
G|-0-0000-0-0000--------------|
C|-0-0000-0-0000--------------|

D|----------------------------|
A|----------------------------|
F|---------------------(x16)--|
C|-88888888-55555555-10-------|
G|-88888888-55555555-10-------|
C|-88888888-55555555-10-------|

D|---------------------------------|
A|---------------------------------|
F|---------------------------------|
C|-88888888-55555555-00-00-0000000-|
G|-88888888-55555555-00-00-0000000-|
C|-88888888-55555555-11-11-1111111-|

D|----------------------------|
A|----------------------------|
F|---------------------(x16)--|
C|-88888888-55555555-10-------|
G|-88888888-55555555-10-------|
C|-88888888-55555555-10-------|

D|---------------------------------|
A|---------------------------------|
F|---------------------------------|
C|-88888888-55555555-00-00-0000000-|
G|-88888888-55555555-00-00-0000000-|
C|-88888888-55555555-11-11-1111111-|

D|--------------------------------|
A|--------------------------------|
F|--------------------------------|
C|-0-00-00-0000000----------------|
G|-0-00-00-0000000----------------|
C|-1-11-11-1111111-000------------|

D|--------------------------------|
A|--------------------------------|
F|--------------------------------|
C|-00-00-0000000------------------|
G|-00-00-0000000------------------|
C|-11-11-1111111------------------|

D|--------------------------------|
A|--------------------------------|
F|--------------------------------|
C|-00-00-0000000------------------|
G|-00-00-0000000------------------|
C|-11-11-1111111-000--------------|
Tap to rate this tab
 
# A B C D E F G H I J K L M N O P Q R S T U V W X Y Z