Misc Unsigned Bands - Been Through Fire - Fish Dont Stink Underwater tab

*- palm mute
^ - hammer on
v - pull off


D------------------------------------------------------------------------------------------|
A------------------------------------------------------------------------------------------|
F------------------------------------------------------------------------------------------|
C------------------------------------------------------------------------------------------|
G-000000-0000-00-0000-00--000000-0000-00-000-2---------------------------------------------|
C-000000-0000-00-0000-00--000000-0000-00-000---1-0-----------------------------------------|x5
  ****** **** ** **** **  ****** **** ** ***

D------------------------------------------------------------------------------------------|
A------------------------------------------------------------------------------------------|
F------------------------------------------------------------------------------------------|
C---------3-2-----5-----3-----2-3-2-0------------------------------------------------------|
G-3-5-3-0-----0-0---0-0---0-0---------3--5-0-3-0-2-3-2-0-----------------------------------|
C------------------------------------------------------------------------------------------|x4
    ^ v v     * *   * *   * *   ^ v ^      v   v   ^ v v

D------------------------------------------------------------------------------------------|
A------------------------------------------------------------------------------------------|
F------------------------------------------------------------------------------------------|
C------------------------------------------------------------------------------------------|
G--------------------------------------------------5-0-3-0-2-3-2-0-------------------------|
C--8-0-0-0-8-0-8-0-7-0-0-0-7-0-7-0-5-0-0-0-5-0-5-0-----------------------------------------|x4


D------------------------------------------------------------------------------------------|
A------------------------------------------------------------------------------------------|
F------------------------------------------------------------------------------------------|
C------------------------------------------------------------------------------------------|
G--8--0--0------0000--0000-00--8--0--0--5--0--0---0000--0000-00----------------------------|
C--8--0--0------0000--0000-00--8--0--0--5--0--0---0000--0000-00----------------------------|x3
                ****  **** **                     ****  **** **


D------------------------------------------------------------------------------------------|
A------------------------------------------------------------------------------------------|
F------------------------------------------------------------------------------------------|
C--------------------------3-----------------2-3-2-0---------------------------------------|
G--8-88-8-88-8-88--3-5-3-0---5-55-5-55-5-55----------3-2-----------------------------------|
C--8-88-8-88-8-88------------5-55-5-55-5-55------------------------------------------------|x2
                     v ^ ^ v                   v ^ ^ v v

D------------------------------------------------------------------------------------------|
A------------------------------------------------------------------------------------------|
F------------------------------------------------------------------------------------------|
C------------------------------------------------------------------------------------------|
G--8-8-8-8--------------------5-5-5-5-5-5--------------------------------------------------|
C--8-8-8-8--------------------5-5-5-5-5-5--------------------------------------------------|x2

D------------------------------------------------------------------------------------------|
A------------------------------------------------------------------------------------------|
F------------------------------------------------------------------------------------------|
C-------------------3----------------------2-3-2-0-----------------------------------------|
G--8-8-8-8--3-5-3-0-----------5-5-5-5-5-5----------3-2-------------------------------------|
C--8-8-8-8--------------------5-5-5-5-5-5--------------------------------------------------|x2
              v ^ ^ v                        v ^ ^ v v

D------------------------------------------------------------------------------------------|
A------------------------------------------------------------------------------------------|
F---------9-9-9--7-7-7--7-7-7--------------------------------------------------------------|
C------------------------------------------------------------------------------------------|
G--8-8-8--7-7-7--5-5-5--5-5-5--------------------------------------------------------------|
C--8-8-8-----------------------------------------------------------------------------------|x1


D------------------------------------------------------------------------------------------|
A------------------------------------------------------------------------------------------|
F------------------------------------------------------------------------------------------|
C------------------------------------------------------------------------------------------|
G--0--0--0000-00--0--0--0000-0-00--0--0--0000-00--0000--0000--2----------------------------|
C--0--0--0000-00--0--0--0000-0-00--0--0--0000-00--0000--0000----1--------------------------|x3
         **** **        ****   **        **** **  ****  ****

D------------------------------------------------------------------------------------------|
A------------------------------------------------------------------------------------------|
F------------------------------------------------------------------------------------------|
C------------------------------------------------------------------------------------------|
G--0--0------------------------------------------------------------------------------------|
C--0--0------------------------------------------------------------------------------------|
Tap to rate this tab
 
# A B C D E F G H I J K L M N O P Q R S T U V W X Y Z