Misc Unsigned Bands - Been Through Fire - Good Thing These Guys Arent Lumberjacks tab

BEEN THROUGH FIRE
"Good Thing These Guys Aren't Lumberjacks"

* - palm mute
# - stop
~ - bend
/ - slide



D-----------------------------------------------------------------------|
A-----------------------------------------------------------------------|
F-----------------------------------------------------------------------|
C--5--6-5-0---------3-5-3-----------------------------------------------|
G-----------6-5-3-5-------5-6-5-3---5--5-5-5-5-5-5-5-5-5-5-5------------|
C-----------------------------------5--5-5-5-5-5-5-5-5-5-5-5--0-0-0-----|
                                                              * * *


D--------------------------------------------------------------------|    |---------------------|
A--------------------------------------------------------------------|    |---------------------|
F--------------------------------------------------------------------|    |---------------------|
C--5--6-5-0---------3-5-3--------------------------------------------|    |---------------------|
G-----------6-5-3-5-------5-6-5-3---6--6-6-6-6-6-6-6-6-6-6-6---3--3--|    |-3--3----------------|
C-----------------------------------6--6-6-6-6-6-6-6-6-6-6-6---3--3--|x3  |-3--3--0-0-----------|
                                                               #  #        #  #  * *

D------------------------------------------------------------------------|
A------------------------------------------------------------------------|
F------------------------------------------------------------------------|
C-----------------10-----10-----7----------------------5-6-5-0-----------|
G--8-----8-----7----------------------8-----8-----7------------6-5-3-5---|
C----0-0---0-0-------0-0----0-0---------0-0---0-0------------------------|x4
     * *   * *       * *    * *         * *   * *

D-------------------------------------------------------------------------|
A-------------------------------------------------------------------------|
F-------------------------------------------------------------------------|
C--5-6-5-0-------------5--6--5--0-----------------------------------------|
G----------6-5-3-5-----------------6--5--3--5-----------------------------|
C-----------------------------------------------3--2--0--2---5--3--2--0---|


D--------------------------------------------|
A--------------------------------------------|
F--------------------------------------------|
C--------------------------------------------|
G--0-0-0--0-0-0--0-0-0---2-2--2-2--2-2-------|
C--0-0-0--0-0-0--0-0-0---2-2--2-2--2-2-------|x4
   * * *  * * *  * * *

D--------------------------------------------------------------|
A--------------------------------------------------------------|
F--------------------------------------------------------------|
C------------------------------------------4-4--4-4--4-4-------|
G--0-0-0---0-0-0-0-0--0-0-0-0-0--0-0-0-0-0-2-2--2-2--2-2-------|
C--0-0-0---0-0-0-0-0--0-0-0-0-0--0-0-0-0-0---------------------|x4
   * * *   * * * * *  * * * * *  * * * * *

D--------------------------------------------------------------|
A--------------------------------------------------------------|
F-----------------9--9-9-9-9-9------------------10-1010101010--|
C--------------------------------------------------------------|
G--0--------------7--7-7-7-7-7---0--------------8--8-8-8-8-8---|
C--0--------------7--7-7-7-7-7---0-----------------------------|


D-----------------------------------------------------------------------------|
A-----------------------------------------------------------------------------|
F-----------------------7-8-7-------------------------------------------------|
C-----------------------------8-7-5-7-0---------------------------------------|
G--0-0--0-0--0--0-0----------------------0-0--0-0--0--0-0----3-3--3--3--0-----|
C--0-0--0-0--0--0-0----------------------0-0--0-0--0--0-0----3-3--3--3--0-----|
        * *     * *                           * *     * *    # #  #  #

D-----------------------------------------------------------------------------|
A-----------------------------------------------------------------------------|
F----------------------7-8-7---------------------9-10-9-------------5-7-5-----|
C----------------------------8-7-5-7-0---0-0------------10--0-0-----------7---|
G--0-0--0-0--0--0-0----------------------0-0--0-------------0-0--0------------|
C--0-0--0-0--0--0-0-----------------------------------------------------------|
        * *     * *                           *		         *

D-------------------------------------------|
A-------------------------------------------|
F-------------------------------------------|
C-------------------------------------------|
G-------------------------------3-3--3-3----|
C-0-0--0--12--------------------3-3--3-3----|
       *   /--------------------------------| # #  # #

D-------------------------------------------|
A-------------------------------------------|
F-------------------------------------------|
C---------12--------------------5-5--5-5----|
G---------12--------------------3-3--3-3----|
C-0-0--0------------------------------------|
       *   /--------------------------------| # #  # #


D---------------------------------------------------------------------------|
A---------------------------------------------------------------------------|
F---------------------------------------------------------------------------|
C------------3-5-3-----------3-5-3------------3--5--5--5----3-2-3-2---2-----|
G--------3-5-------5-----3-5-------5------3-5-----------------------3---5---|
C---0-0----------------0---------------0------------------------------------|x4
                   ~               ~                   ~

D------------------------------------------------------------------------------------------|
A------------------------------------------------------------------------------------------|
F------------------------------------------------------------------------------------------|
C---------------------------------------------------------4-4------------------------------|
G--0-0--0-0--0--------------0-3-5-0-0--0-0--0--0-0--2-2---2-2------------------------------|
C--0-0--0-0--0--------------0-3-5-0-0--0-0--0--0-0--2-2------------------------------------|x4
        * *  #                         * *     * *  # #   # #

D-----------------------------------------------------------------------------|
A-----------------------------------------------------------------------------|
F-----------------------7-8-7-------------------------------------------------|
C-----------------------------8-7-5-7-0---------------------------------------|
G--0-0--0-0--0--0-0----------------------0-0--0-0--0--0-0----3-3--3--3--0-----|
C--0-0--0-0--0--0-0----------------------0-0--0-0--0--0-0----3-3--3--3--0-----|
        * *     * *                           * *     * *    # #  #  #

D-----------------------------------------------------------------------------|
A-----------------------------------------------------------------------------|
F----------------------7-8-7---------------------9-10-9-------------5-7-5-----|
C----------------------------8-7-5-7-0---0-0------------10--0-0-----------7---|
G--0-0--0-0--0--0-0----------------------0-0--0-------------0-0--0------------|
C--0-0--0-0--0--0-0-----------------------------------------------------------|
        * *     * *                           *		         *

D-------------------------------------------|
A-------------------------------------------|
F-------------------------------------------|
C-------------------------------------------|
G-------------------------------------------|
C-0-0--0--12--------------------3-3--3-3----|
       *   /--------------------------------| # #  # #


D---------------------------------------------------------------------------|
A---------------------------------------------------------------------------|
F---------------------------------------------------------------------------|
C------------3-5-3-----------3-5-3------------3--5--5--5----3-2-3-2---2-----|
G--------3-5-------5-----3-5-------5------3-5-----------------------3---5---|
C---0-0----------------0---------------0------------------------------------|x4
                   ~               ~                   ~

D------------------------------------------------------------------------|
A------------------------------------------------------------------------|
F------------------------------------------------------------------------|
C-------------------------------------------------------------------4-4--|
G--0-0--0-0--0---------------------0-3-5-0-0--0-0--0--0-0--2-2------2-2--|
C--0-0--0-0--0--0--0-0-0--0-0-0--0-0-3-5-0-0--0-0--0--0-0--2-2--0-0------|
        * *     *  * * *  * * *  *            * *     * *  # #  * * # #


D--------------------------------------------------------------------------------|
A--------------------------------------------------------------------------------|
F--------------------------------------------------------------------------------|
C--------------------3-2------------------3-2-----------------3-2----------------|
G--0---------------------5--------------------5--------------------5-------------|
C--0---0-0-0--0-0-0----------0-0-0--0-0-0--------0-0-0--0-0-0--------------------|
       * * *  * * *          * * *  * * *        * * *  * * *

D--------------------------------------------------------------------------------|
A--------------------------------------------------------------------------------|
F--------------------------------------------------------------------------------|
C------3------3--5---3-5-3-2-3---------------------------------------------------|
G--3-5----3-5-------------------5------------------------------------------------|
C--------------------------------------------------------------------------------|
                 ~
D------------|
A------------|
F------------|
C------------|
G----3---3-0-|
C--0-3-0-3-0-|
   * # * #
Tap to rate this tab
 
# A B C D E F G H I J K L M N O P Q R S T U V W X Y Z