Song name
# A B C D E F G H I J K L M N O P Q R S T U V W X Y Z

Misc Unsigned Bands - Ben West - Hey Catalina chords

Highlighted       Show chord diagrams
-------------------------------------------------------------------------------
			     Hey Catalina - Ben West
-------------------------------------------------------------------------------

Song : Hey Catalina
Artist : Ben West
Album : Emotional Deep
Tabbed by : JBW

Tuning : Standard

Chords Used : Dm7    Am7    Gm7    Bb    Abm7    Am    C    F    Gbm7    

e|-----5------5------3--------1--------4-------5-------3------1------2-----|
B|-----6------5------3--------3--------4-------5-------5------1------2-----|
G|-----5------5------3--------3--------4-------5-------5------2------2-----|
D|-----7------5------3--------3--------4-------7-------5------3------2-----|
A|-----5------7------5--------1--------6-------7-------3------3------4-----|
E|------------5------3-----------------4-------5--------------1------2-----|




intro : Dm7    Am7    Dm7    Am7  Gm7    Dm7    Am7    Dm7    Am7  Bb  Am7  Bb  Am7
 
Verse 1 : Dm7    Am7 Abm7 Gm7    Bb    Am    [Bb    C]
 
Let me tell you about this girl I know
She rocks the boat and she steals the show
Prettiest thing within the coasts
Tells me it's all for me that's what I love the most
And times when I fall down she's there for me
This pain without her only relieves
When our hearts become together
                  [Bb    C]
Everything gets better
 
Chorus : F    Am7    Gm7    Gm7  Gbm7
 
Hey Catalina could things be sweeter
Hey Catalina I'm so into yah
Hey Catalina You fuel this dreamer
F         Am7  Gm7        Bb
Hey Catalina with you I'm greater
 
Verse 2 : Dm7    Am7 Abm7 Gm7    Bb    Am    [Bb    C]
 
Alright this girl is kickin it she does her own thing and the script she's always flippin it
She loves to keep her body oh so tight lovin on me everything feels right
Her mind is sometimes in the clouds she's so lovely floating around
I don't really mind because I love her soul body and mind I know she loves me so
It's an interstellar love connection thing we've got and if you want to pop shots
you're gonna get your shot blocked because we never stop thats why we always on top
                                           [Bb    C]
And that's where we'll stay with our love that's where we'll stay
 
Chorus : F    Am7    Gm7    Gm7  Gbm7
 
Hey Catalina could things be sweeter
Hey Catalina I'm so into yah
Hey Catalina You fuel this dreamer
F         Am7  Gm7        Bb
Hey Catalina with you I'm greater
 
intro 2 / Solo : Dm7    Am7    Dm7    Am7  Gm7    Dm7    Am7    Dm7    Am7  Bb  Am7  Bb  Am7 
[Bb    C]

Chorus : F    Am7    Gm7    Gm7  Gbm7
 
Hey Catalina could things be sweeter
Hey Catalina I'm so into yah
Hey Catalina You fuel this dreamer
F         Am7  Gm7        Bb
Hey Catalina with you I'm greater



Tap to rate this tab
 
# A B C D E F G H I J K L M N O P Q R S T U V W X Y Z