Song name
# A B C D E F G H I J K L M N O P Q R S T U V W X Y Z

Misc Unsigned Bands - Ben West - Simply Easy chords

Highlighted       Show chord diagrams
-------------------------------------------------------------------------------
			     SIMPLY EASY - Ben West
-------------------------------------------------------------------------------

Song : Simply Easy
Artist : Ben West 
Album : Past Visit (03-06)
Tabbed by : JBW

Tuning : Standard

for the riff the C#m7 is just a walking chord. Listen to the song for the rhythm. 
It's the same throughout the whole song and if you want you can do however you like :)

Chords Used : Cm7    C#m7    Dm7


e|------3-------4-------5---------------------------------------------------|
B|------4-------5-------6---------------------------------------------------|
G|------3-------4-------5---------------------------------------------------|
D|------5-------6-------7---------------------------------------------------|
A|------3-------4-------5---------------------------------------------------|
E|--------------------------------------------------------------------------|


Intro / verse / chorus : Cm7    C#m7  Dm7    C#m7    

Rain drops fall down onto the ground 
Listen closely to the sound 
Simply easy calms me down 

Oh it feels like x4 

Face of a beauty queen mind out this world 
Lovers, fighters one another we have 
and it's simply easy it calms me down 

Oh it feels like x4 

solo 

I love the way the everyday I get to see the thing that makes me feel this way x2 

oh it feels like x2 fade
Tap to rate this tab
 
# A B C D E F G H I J K L M N O P Q R S T U V W X Y Z