Misc Unsigned Bands - Ben West - From The Start chords

Highlighted       Show chord diagrams
-------------------------------------------------------------------------------
			     FROM THE START - Ben West
-------------------------------------------------------------------------------

Song : From the Start
Artist : Ben West
Album : Past Visit (03-06)
Tabbed by : JBW

Tuning : Standard

Chords Used : F    Bb    C    Dm    

e|----1--------1-------3------1---------------------------------------------|
B|----1--------3-------5------3---------------------------------------------|
G|----2--------3-------5------2---------------------------------------------|
D|----3--------3-------5------0---------------------------------------------|
A|----3--------1-------3----------------------------------------------------|
E|----1---------------------------------------------------------------------|


Intro / Verse : Dm    C    Bb    F

From day one you and I've been friends
Hanging out friends till the end
Then one day that friendship turned to love
                                [Bb    F]
I want you to know all of the above

Chorus : Bb    F    C  Dm  C

I want you to know
That I'll never let you go
Girl it's plain to see
That you and I were meant to be
And right from the start
Girl you had my heart

Verse 2 : Dm    C    Bb    F    [Bb    F]

If you need me I'll be there
I don't ever want to hurt you
Please believe everything I say
                           [Bb    F]
Because it's all true

Chorus : Bb    F    C  Dm  C

I want you to know
That I'll never let you go
Girl it's plain to see
That you and I were meant to be
And right from the start
Girl you had my heart

Bridge : Dm    C    Dm    C    [Dm    Em    F]

Listen to me
All I want to do is make you happy
From day one till the day I die
                           [Dm    Em    F]
I want you to be by my side

Chorus : Bb    F    C  Dm  C

I want you to know
That I'll never let you go
Girl it's plain to see
That you and I were meant to be
And right from the start
Girl you had my heart

I just wanted you to know
Tap to rate this tab
 
# A B C D E F G H I J K L M N O P Q R S T U V W X Y Z