Misc Unsigned Bands - Zoemaar - De Ster chords

Highlighted       Show chord diagrams
Zoemaar - De Ster
Video   : http://www.youtube.com/watch?v=DQ4ApTEmeHg
Tuning  : EADGBe (Standard)
Capo    : 0

Chords:
G    : 3x0033
Cadd9: x32033
D/F# : 200233
Em7  : 022033
?    : x02233
D    : xx0232

Intro:
    G Cadd9
e|--3---3--|
B|--3---3--|
G|--0---0--|  12x
D|--0---2--|
A|--x---3--|
E|--3---x--|

Verse 1:
    G Cadd9 G D/F# Em7 Cadd9 ? Cadd9 D
e|--3---3---3---3---3---3---3---3---2--|
B|--3---3---3---3---3---3---3---3---3--|
G|--0---0---0---2---0---0---2---0---2--|  2x
D|--0---2---0---0---2---2---2---2---0--|
A|--x---3---2---0---2---3---0---3---x--|
E|--3---x---3---2---0---x---x---x---x--|

Chorus:
    G Cadd9     D/F# Cadd9 D/F# Em7 Cadd9
e|--3---3--      --3---3---3---3---3--|
B|--3---3--      --3---3---3---3---3--|
G|--0---0--  8x  --2---0---2---0---0--|
D|--0---2--      --0---2---0---2---2--|
A|--x---3--      --0---3---0---2---3--|
E|--3---x--      --2---x---2---0---x--|

    G Cadd9
e|--3---3--|
B|--3---3--|
G|--0---0--|  4x
D|--0---2--|
A|--2---3--|
E|--3---x--|

Verse 2:
    G Cadd9 G D/F# Em7 Cadd9 ? Cadd9 D
e|--3---3---3---3---3---3---3---3---2--|
B|--3---3---3---3---3---3---3---3---3--|
G|--0---0---0---2---0---0---2---0---2--|  2x
D|--0---2---0---0---2---2---2---2---0--|
A|--x---3---2---0---2---3---0---3---x--|
E|--3---x---3---2---0---x---x---x---x--|

Chorus:
   G Cadd9     D/F# Cadd9 D/F# Em7 Cadd9
e|--3---3--      --3---3---3---3---3--|
B|--3---3--      --3---3---3---3---3--|
G|--0---0--  8x  --2---0---2---0---0--|
D|--0---2--      --0---2---0---2---2--|
A|--x---3--      --0---3---0---2---3--|
E|--3---x--      --2---x---2---0---x--|

    G Cadd9
e|--3---3--|
B|--3---3--|
G|--0---0--|  4x
D|--0---2--|
A|--2---3--|
E|--3---x--|

Intro:
 G Cadd9
e|--3---3--|
B|--3---3--|
G|--0---0--|  8x
D|--0---2--|
A|--2---3--|
E|--3---x--|

Chorus:
   G Cadd9      D/F# Cadd9 D/F# Em7 Cadd9
e|--3---3--      --3---3---3---3---3--|
B|--3---3--      --3---3---3---3---3--|
G|--0---0--  8x  --2---0---2---0---0--|
D|--0---2--      --0---2---0---2---2--|
A|--x---3--      --0---3---0---2---3--|
E|--3---x--      --2---x---2---0---x--|

    G Cadd9
e|--3---3--|
B|--3---3--|
G|--0---0--|  4x
D|--0---2--|
A|--2---3--|
E|--3---x--|

 D/F# Cadd9 D/F# Em7 Cadd9 G
e|--3---3---3---3---3----3--|
B|--3---3---3---3---3----3--|
G|--2---0---2---0---0----0--|
D|--0---2---0---2---2----0--|
A|--0---3---0---2---3----2--|
E|--2---x---2---0---x----3--|
Tap to rate this tab
 
# A B C D E F G H I J K L M N O P Q R S T U V W X Y Z