Song name
# A B C D E F G H I J K L M N O P Q R S T U V W X Y Z

Misc Unsigned Bands - Managarm - Prolonged Isolation tab

SECOND GUITAR

E--------------------------------------|
B----0---0---0---0---------------------|
G---0-0-0-0-0-0-0-0---0---0----0----0--|
D--2---2---0---0-----2-2-2-2--0-0--0-0-|
A-------------------3---3----2----2----|
E--------------------------------------|

FIRST GUITAR

E--10--12--10--12---------10-|
B------------------12--------|
G----------------------------|
D----------------------------|
L----------------------------|
A----------------------------|


E--10--12--10--12---------10---7-------7-----7--10--7---7--|
B------------------12------------10-10----10---------10----|
G----------------------------------------------------------|
D----------------------------------------------------------|
L----------------------------------------------------------|
A----------------------------------------------------------|
Tap to rate this tab
 
# A B C D E F G H I J K L M N O P Q R S T U V W X Y Z