Misc Unsigned Bands - Revenge Of The Nerds - Talent Show tab

This is my first tab, let me know if you like it or hate it.

Riff A:
----16-17-19-17-19-17-16-----------16-17-19-17-19-17-16----------------|
--17--------------------17----15-17--------------------17-15-15-17-----|
-----------------------------------------------------------------------|
-----------------------------------------------------------------------|
-----------------------------------------------------------------------|
-----------------------------------------------------------------------|

Riff B:
-------16----------16--17161716---17161716-----------------------------|
-15-17-----15151717------------17---------17-15141514------------------|
-----------------------------------------------------16----------------|
-----------------------------------------------------------------------|
-----------------------------------------------------------------------|
-----------------------------------------------------------------------|

Riff C:
------17h19h21h22^24---------------------------------------------------|
--15h17----------------------------------------------------------------|
-16--------------------------------------------------------------------|
-----------------------------------------------------------------------|
-----------------------------------------------------------------------|
-----------------------------------------------------------------------|

Riff D:
-----------------------------------------------------------------------|
-----------------------------------------------------------------------|
-141414h13-------------------------------------------------------------|
---------14------------------------------------------------------------|
-----------------------------------------------------------------------|
-----------------------------------------------------------------------|

Riff E:
--------------------------------17-16----------------------------------|
-17-17-15---17-17-15---17-17-15-------17-------------------------------|
-----------------------------------------------------------------------|
-----------------------------------------------------------------------|
-----------------------------------------------------------------------|
-----------------------------------------------------------------------|

Riff F:
-------16---------16---------------------------------------------------|
-15-17----15151717-----------------------------------------------------|
-----------------------------------------------------------------------|
-----------------------------------------------------------------------|
-----------------------------------------------------------------------|
-----------------------------------------------------------------------|

Riff G:
17161716--17161716--19171917--17161716---------------------------------|
-------17--------17--------17--------17---151515h17--------------------|
-----------------------------------------------------------------------|
-----------------------------------------------------------------------|
-----------------------------------------------------------------------|
-----------------------------------------------------------------------|


Order:

Riff A
Riff B
Riff C
Riff A
Riff B
Riff D
Riff E
Riff A
Riff F
Riff G

Lyrics:
Clap your hands everybody
And everybody clap your hands
We're Lambda Lambda Lambda and
Omega Mu

And we're out here on stage tonight
To do a show for you
We got a rockin rhythm and a high-tech sound
That'll make you move your bodies down to the ground

We got Poindexter on the violin
And Lewis and Gilbert will be joining in
We got Booger Presley on a mean guitar
And a rap by little ol' me Lamar

We got Takashi beatin' on his gong
The boys and the Mu's are clappin along
And just when you thought you'd seen it all
Out comes a Lambda 4 feet tall

So why don'y you come out here on the floor
So we can work our bodies like never before
Break
Tap to rate this tab
 
# A B C D E F G H I J K L M N O P Q R S T U V W X Y Z