Misc Unsigned Bands - Violins - Woke Up tab

Intro/ Intervals/ Between Verses
  D                G               Bm               A
E|------------------------------------------------------------------|
B|-----------------12-12-12-12-10-----------------------------------|
G|11--11--11--11-------------------11--11--11--11-------------------|X2
D|--12--12--12--12-------------------12--12--12--12-14-11-14-----11-|
A|----------------------------------------------------------12-14---|
E|------------------------------------------------------------------|

Verse/ Chorus
E|---------|
B|7\-3-3-2-|
G|7\-4-4-2-|
D|7\-5-4-2-|
A|---------|
E|---------|

Before Last Chorus
E|------------------------------------------------------------------|
B|-----------------12-12-12-12-10-----------------------------------|
G|11--11--11--11-------------------11--11--11--11-------------------|
D|--12--12--12--12-------------------12--12--12--12-14-11-14-----11-|
A|----------------------------------------------------------12-14---|
E|------------------------------------------------------------------|

E|-----------------------------------------|
B|-----------------12-12-12-12/15-15-15-15-|
G|11--11--11--11---------------------------|
D|--12--12--12--12-------------------------|
A|-----------------------------------------|
E|-----------------------------------------|

E|---------------------------------|
B|---------------------------------|
G|11--11--11--11-------------------|
D|--12--12--12--12-14-11-14-----11-|
A|-------------------------12-14---|
E|---------------------------------|

Outro
E|---------------------10--------------------------------------|
B|------10-------12--12--12--12-------10-----------------------|
G|11--11--11--11---11------11---11--11--11--11-----------------|X2
D|--12------12--------------------12------12---14-11-14-----11-|
A|-----------------------------------------------------12-14---|
E|-------------------------------------------------------------|

End On:
E|---|
B|---|
G|---|
D|12-|
A|---|
E|---|
Tap to rate this tab
 
# A B C D E F G H I J K L M N O P Q R S T U V W X Y Z