Song name
# A B C D E F G H I J K L M N O P Q R S T U V W X Y Z

Misc Unsigned Bands - Coat Of Arms - The Make Or The Break tab

Song: THE MAKE OR THE BREAK
Artist: COAT OF ARMS
Album: Inheritance (2010)

Music Video: http://www.youtube.com/watch?v=9HtRR1Aq2gs&feature=relmfu
Fb Fanpage: www.facebook.com/coatofarmsband
Youtube Channel: www.youtube.com/user/coatofarmsband

THE MAKE OR THE BREAK
Tempo = 72bpm (4/4 Time signature)

Amir
     PM PM PM PM    PM PM PM PM PM PM PM PM    PM PM PM PM PM PM PM PM
     E  E  E  E     E  E  E  E  E  E  E  E     E  E  E  E  E  E  E  E
D||--------------|--------------------------|--------------------------|
A||--------------|--------------------------|--------------------------|
F||--------------|--------------------------|--------------------------|
C||--------------|--------------------------|--------------------------|
G||--3--3--5--5--|--0--0--0--0--0--0--0--0--|--7--7--7--7--7--7--7--7--|
C||--3--3--5--5--|--0--0--0--0--0--0--0--0--|--7--7--7--7--7--7--7--7--|


  PM PM PM PM PM PM PM PM    PM PM PM PM PM PM PM PM
  E  E  E  E  E  E  E  E     E  E  E  E  E  E  E  E
--------------------------|--------------------------|
--------------------------|--------------------------|
--------------------------|--------------------------|
--------------------------|--------------------------|
--0--0--0--0--0--0--0--0--|--3--3--3--3--5--5--5--5--|
--0--0--0--0--0--0--0--0--|--3--3--3--3--5--5--5--5--|


  PM PM PM PM PM PM PM PM    PM PM PM PM PM PM PM PM
  E  E  E  E  E  E  E  E     E  E  E  E  E  E  E  E
--------------------------|--------------------------|
--------------------------|--------------------------|
--------------------------|--------------------------|
--------------------------|--------------------------|
--0--0--0--0--0--0--0--0--|--7--7--7--7--7--7--7--7--|
--0--0--0--0--0--0--0--0--|--7--7--7--7--7--7--7--7--|


  PM PM PM PM PM PM PM PM    PM PM PM PM PM PM PM
  E  E  E  E  E  E  E  E     E  E  E  E  E  E  E  E     W
--------------------------|--------------------------|-------------------|
--------------------------|--------------------------|-------------------|
--------------------------|--------------------------|-------------------|
--------------------------|--------------------------|-------------------|
--0--0--0--0--0--0--0--0--|--3--3--3--3--5--5--5--5--|--L----------------|
--0--0--0--0--0--0--0--0--|--3--3--3--3--5--5--5--5--|--L----------------|


  PM PM   PM   PM                 PM PM   PM   PM
  S  S  S S  S S   H        E     S  S  S S  S S  H        E
-------------------------------|------------------------------|
-------------------------------|------------------5--------L--|
------------------10-----------|------------------5-----------|
-------------------7--------L--|------------------3--------L--|
--0--0--L-0--L-0---7--------L--|--3--3--L-3--L-3--3--------L--|
--0--0--L-0--L-0---7--------L--|--3--3--L-3--L-3--3--------L--|


  PM PM   PM   PM                PM PM   PM   PM
  S  S  S S  S S  H        E     S  S  S S  S S  H        E
------------------------------|------------------------------|
------------------0--------L--|------------------------------|
------------------5-----------|------------------------------|
------------------3--------L--|------------------5--------5--|
--0--0--L-0--L-0--0--------L--|--3--3--L-3--L-3--5--------5--|
--0--0--L-0--L-0--0--------L--|--3--3--L-3--L-3--5--------5--|


  PM PM   PM   PM                 PM PM   PM   PM
  S  S  S S  S S   H        E     S  S  S S  S S  H        E
-------------------------------|------------------------------|
-------------------------------|------------------5--------L--|
------------------10-----------|------------------5-----------|
-------------------7--------L--|------------------3--------L--|
--0--0--L-0--L-0---7--------L--|--3--3--L-3--L-3--3--------L--|
--0--0--L-0--L-0---7--------L--|--3--3--L-3--L-3--3--------L--|


  PM PM   PM   PM                PM PM   PM   PM
  S  S  S S  S S  H        E     S  S  S S  S S  H        E
------------------------------|------------------------------|
------------------0--------L--|------------------------------|
------------------5-----------|------------------------------|
------------------3--------L--|------------------5--------5--|
--0--0--L-0--L-0--0--------L--|--3--3--L-3--L-3--5--------5--|
--0--0--L-0--L-0--0--------L--|--3--3--L-3--L-3--5--------5--|


  PM PM PM PM PM PM PM PM    PM PM PM PM PM PM PM PM
  E  E  E  E  E  E  E  E     E  E  E  E  E  E  E  E
--------------------------|--------------------------|
--------------------------|--------------------------|
--------------------------|--------------------------|
--------------------------|--------------------------|
--0--0--0--0--0--0--0--0--|--7--7--7--7--7--7--7--7--|
--0--0--0--0--0--0--0--0--|--7--7--7--7--7--7--7--7--|


  PM PM PM PM PM PM PM PM    PM PM PM PM PM PM PM PM
  E  E  E  E  E  E  E  E     E  E  E  E  E  E  E  E
--------------------------|--------------------------|
--------------------------|--------------------------|
--------------------------|--------------------------|
--------------------------|--------------------------|
--0--0--0--0--0--0--0--0--|--3--3--3--3--5--5--5--5--|
--0--0--0--0--0--0--0--0--|--3--3--3--3--5--5--5--5--|


  PM PM PM PM PM PM PM PM    PM PM PM PM PM PM PM PM
  E  E  E  E  E  E  E  E     E  E  E  E  E  E  E  E
--------------------------|--------------------------|
--------------------------|--------------------------|
--------------------------|--------------------------|
--------------------------|--------------------------|
--0--0--0--0--0--0--0--0--|--7--7--7--7--7--7--7--7--|
--0--0--0--0--0--0--0--0--|--7--7--7--7--7--7--7--7--|


  PM PM PM PM PM PM PM PM    PM PM PM PM PM PM PM
  E  E  E  E  E  E  E  E     E  E  E  E  E  E  E  E     W
--------------------------|--------------------------|-------------------|
--------------------------|--------------------------|-------------------|
--------------------------|--------------------------|-------------------|
--------------------------|--------------------------|-------------------|
--0--0--0--0--0--0--0--0--|--3--3--3--3--5--5--5--5--|--L----------------|
--0--0--0--0--0--0--0--0--|--3--3--3--3--5--5--5--5--|--L----------------|


  PM PM   PM   PM                 PM PM   PM   PM
  S  S  S S  S S   H        E     S  S  S S  S S  H        E
-------------------------------|------------------------------|
-------------------------------|------------------5--------L--|
------------------10-----------|------------------5-----------|
-------------------7--------L--|------------------3--------L--|
--0--0--L-0--L-0---7--------L--|--3--3--L-3--L-3--3--------L--|
--0--0--L-0--L-0---7--------L--|--3--3--L-3--L-3--3--------L--|


  PM PM   PM   PM                PM PM   PM   PM
  S  S  S S  S S  H        E     S  S  S S  S S  H        E
------------------------------|------------------------------|
------------------0--------L--|------------------------------|
------------------5-----------|------------------------------|
------------------3--------L--|------------------5--------5--|
--0--0--L-0--L-0--0--------L--|--3--3--L-3--L-3--5--------5--|
--0--0--L-0--L-0--0--------L--|--3--3--L-3--L-3--5--------5--|


  PM PM   PM   PM                 PM PM   PM   PM
  S  S  S S  S S   H        E     S  S  S S  S S  H        E
-------------------------------|------------------------------|
-------------------------------|------------------5--------L--|
------------------10-----------|------------------5-----------|
-------------------7--------L--|------------------3--------L--|
--0--0--L-0--L-0---7--------L--|--3--3--L-3--L-3--3--------L--|
--0--0--L-0--L-0---7--------L--|--3--3--L-3--L-3--3--------L--|


  PM PM   PM   PM                PM PM   PM   PM
  S  S  S S  S S  H        E     S  S  S S  S S  H        E
------------------------------|------------------------------|
------------------0--------L--|------------------------------|
------------------5-----------|------------------------------|
------------------3--------L--|------------------5--------5--|
--0--0--L-0--L-0--0--------L--|--3--3--L-3--L-3--5--------5--|
--0--0--L-0--L-0--0--------L--|--3--3--L-3--L-3--5--------5--|


  PM   PM   PM   PM
  S  S S  S S  S S  S    S T S T S T T T T T T T T S T T T T S S S S S
----------------------|------------------------------------------------|
----------------------|------------------------------------------------|
----------------------|------------------------------------------------|
----------------------|--------------------------------------------8---|
--3----3----5----5----|--0---0---0-----0-0-0-0-0-0-0-------------0-5-0-|
--3----3----5----5----|--0---0---0-----0-0-0-0-0-0-0-------------0---0-|


                                      PM
  S S S S S T T T T T T S T T T T S S S  E
--------------------------------------------|
--------------------------------------------|
--------------------------------------------|
--------------------------------------------|
--0---------0-0-0-0-0-0-0---------6-5-0--1--|
--0---------0-0-0-0-0-0-0---------6-5-0--1--|


  S T S T S T T T T T T T T S T T T T S S S S S
------------------------------------------------|
------------------------------------------------|
------------------------------------------------|
--------------------------------------------8---|
--0---0---0-----0-0-0-0-0-0-0-------------0-5-0-|
--0---0---0-----0-0-0-0-0-0-0-------------0---0-|


                                      PM
  S S S S S T T T T T T S T T T T S S S  E
--------------------------------------------|
--------------------------------------------|
--------------------------------------------|
--------------------------------------------|
--0---------0-0-0-0-0-0-0---------6-5-0--1--|
--0---------0-0-0-0-0-0-0---------6-5-0--1--|


  S T S T S T T T T T T T T S T T T T S S S S S
------------------------------------------------|
------------------------------------------------|
------------------------------------------------|
--------------------------------------------8---|
--0---0---0-----0-0-0-0-0-0-0-------------0-5-0-|
--0---0---0-----0-0-0-0-0-0-0-------------0---0-|


                                      PM
  S S S S S T T T T T T S T T T T S S S  E
--------------------------------------------|
--------------------------------------------|
--------------------------------------------|
--------------------------------------------|
--0---------0-0-0-0-0-0-0---------6-5-0--1--|
--0---------0-0-0-0-0-0-0---------6-5-0--1--|


  S T S T S T T T T T T T T S T T T T S S S S S
------------------------------------------------|
------------------------------------------------|
------------------------------------------------|
--------------------------------------------8---|
--0---0---0-----0-0-0-0-0-0-0-------------0-5-0-|
--0---0---0-----0-0-0-0-0-0-0-------------0---0-|


                                      PM
  S S S S S T T T T T T S T T T T S S S  E
--------------------------------------------|
--------------------------------------------|
--------------------------------------------|
--------------------------------------------|
--0---------0-0-0-0-0-0-0---------6-5-0--1--|
--0---------0-0-0-0-0-0-0---------6-5-0--1--|


  S T S T S T T T T T T T T S T T T T S S S S S
------------------------------------------------|
------------------------------------------------|
------------------------------------------------|
--------------------------------------------8---|
--0-L-0-L-0-L-L-0-0-0-0-0-0-0-L-L-L-L-L-L-0-5-0-|
--0-L-0-L-0-L-L-0-0-0-0-0-0-0-L-L-L-L-L-L-0---0-|


                                      PM
  S S S S S T T T T T T S T T T T S S S  E
--------------------------------------------|
--------------------------------------------|
--------------------------------------------|
--------------------------------------------|
--0-L-L-L-L-0-0-0-0-0-0-0-L-L-L-L-6-5-0--1--|
--0-L-L-L-L-0-0-0-0-0-0-0-L-L-L-L-6-5-0--1--|


  S T S T S T T T T T T T T S T T T T S S S S S
------------------------------------------------|
------------------------------------------------|
------------------------------------------------|
--------------------------------------------8---|
--0-L-0-L-0-L-L-0-0-0-0-0-0-0-L-L-L-L-L-L-0-5-0-|
--0-L-0-L-0-L-L-0-0-0-0-0-0-0-L-L-L-L-L-L-0---0-|


                                      PM
  S S S S S T T T T T T S T T T T S S S  E
--------------------------------------------|
--------------------------------------------|
--------------------------------------------|
--------------------------------------------|
--0-L-L-L-L-0-0-0-0-0-0-0-L-L-L-L-6-5-0--1--|
--0-L-L-L-L-0-0-0-0-0-0-0-L-L-L-L-6-5-0--1--|


   T  T  T  T  T  T  T  T  T  T  T  T  T  T  T  T  T  T  T  T  T  T  T  T  T  T
--------------------------------------------------------------------------------|
--------------------------------------------------------------------------------|
--10-10-10-10-10-10-10-10-10-10-10-10-10-10-10-10-10-10-10-10-10-10-10-10-10-10-|
---7--7--7--7--7--7--7--7--7--7--7--7--7--7--7--7--7--7--7--7--7--7--7--7--7--7-|
--------------------------------------------------------------------------------|
--------------------------------------------------------------------------------|


   T  T  T  T  T  T  T  T  T  T  T  T  T  T  T  T  T  T  T  T  T  T  T  T  T  T
--------------------------------------------------------------------------------|
--------------------------------------------------------------------------------|
--10-10-10-10-10-10-10-10-10-10-10-10-10-10-10-10-10-10-10-10-10-10-10-10-10-10-|
---8--8--8--8--8--8--8--8--8--8--8--8--8--8--8--8--8--8--8--8--8--8--8--8--8--8-|
--------------------------------------------------------------------------------|
--------------------------------------------------------------------------------|


   T  T  T  T  T  T  T  T  T  T  T  T  T  T  T  T  T  T  T  T  T  T  T  T  T  T
--------------------------------------------------------------------------------|
--------------------------------------------------------------------------------|
--10-10-10-10-10-10-10-10-10-10-10-10-10-10-10-10-10-10-10-10-10-10-10-10-10-10-|
---7--7--7--7--7--7--7--7--7--7--7--7--7--7--7--7--7--7--7--7--7--7--7--7--7--7-|
--------------------------------------------------------------------------------|
--------------------------------------------------------------------------------|


   T  T  T  T  T  T  T  T  T  T  T  T  T  T  T  T  T  T  T  T  T  T  T  T  T  T
--------------------------------------------------------------------------------|
--------------------------------------------------------------------------------|
--10-10-10-10-10-10-10-10-10-10-10-10-10-10-10-10-10-10-10-10-10-10-10-10-10-10-|
---8--8--8--8--8--8--8--8--8--8--8--8--8--8--8--8--8--8--8--8--8--8--8--8--8--8-|
--------------------------------------------------------------------------------|
--------------------------------------------------------------------------------|


                      PM PM PM PM PM PM
  W                   S  S  S  S  S  S   H        E
-------------------|---------------------------------|
-------------------|---------------------------------|
-------------------|--------------------10-----------|
-------------------|---------------------7--------L--|
--L----------------|--0--0--0--0--0--0---7--------L--|
--L----------------|--0--0--0--0--0--0---7--------L--|


  PM PM   PM   PM                PM PM   PM   PM
  S  S  S S  S S  H        E     S  S  S S  S S  H        E
------------------------------|------------------------------|
------------------------------|------------------------------|
------------------5-----------|------------------------------|
------------------3--------L--|------------------3--------L--|
--3--3--L-3--L-3--3--------L--|--0--0--L-0--L-0--0--------L--|
--3--3--L-3--L-3--3--------L--|--0--0--L-0--L-0--0--------L--|


  PM PM   PM   PM                PM PM   PM   PM
  S  S  S S  S S  H        E     S  S  S S  S S   H        E
------------------------------|-------------------------------|
------------------------------|-------------------------------|
------------------7-----------|------------------10-----------|
------------------5--------5--|-------------------7--------L--|
--3--3--L-3--L-3--5--------5--|--0--0--L-0--L-0---7--------L--|
--3--3--L-3--L-3--5--------5--|--0--0--L-0--L-0---7--------L--|


  PM PM   PM   PM                PM PM   PM   PM
  S  S  S S  S S  H        E     S  S  S S  S S  H        E
------------------------------|------------------------------|
------------------------------|------------------------------|
------------------5-----------|------------------------------|
------------------3--------L--|------------------3--------L--|
--3--3--L-3--L-3--3--------L--|--0--0--L-0--L-0--0--------L--|
--3--3--L-3--L-3--3--------L--|--0--0--L-0--L-0--0--------L--|


  PM PM   PM   PM
  S  S  S S  S S  H        E
------------------------------|
------------------------------|
------------------7-----------|
------------------5--------5--|
--3--3--L-3--L-3--5--------5--|
--3--3--L-3--L-3--5--------5--|


         PM    PM PM        PM    PM PM   PM    PM
  T  T S S   S S  S  T  T S S   S S  S  S S   S S
---------------------------------------------------|
---------------------------------------------------|
----------------------------------------9----------|
--9-10-9----10-------9-10-9----10------------10----|
---------8-----8--8---------8-----8--8----8-----8--|
---------------------------------------------------|


  PM PM    PM   PM PM PM PM   PM    PM PM
  S  S   S S  S S  S  S  S  S S   S S  S  S S
-----------------------------------------------|
-----------------------------------------------|
----------------------------9------------------|
--------10----9------------------10-------9-7h-|
--7--7-----7----7--7--7--7----7-----7--7-------|
-----------------------------------------------|


         PM    PM PM        PM    PM PM   PM    PM
  T  T S S   S S  S  T  T S S   S S  S  S S   S S
---------------------------------------------------|
---------------------------------------------------|
----------------------------------------9----------|
--9-10-9----10-------9-10-9----10------------10----|
---------8-----8--8---------8-----8--8----8-----8--|
---------------------------------------------------|


  PM PM    PM   PM PM PM PM   PM    PM PM
  S  S   S S  S S  S  S  S  S S   S S  S  S S
-----------------------------------------------|
-----------------------------------------------|
----------------------------9------------------|
--------10----9------------------10-------9-7h-|
--7--7-----7----7--7--7--7----7-----7--7-------|
-----------------------------------------------|


         PM    PM PM        PM    PM PM   PM    PM
  T  T S S   S S  S  T  T S S   S S  S  S S   S S
---------------------------------------------------|
---------------------------------------------------|
----------------------------------------9----------|
--9-10-9----10-------9-10-9----10------------10----|
---------8-----8--8---------8-----8--8----8-----8--|
---------------------------------------------------|


  PM PM    PM   PM PM PM PM   PM    PM PM
  S  S   S S  S S  S  S  S  S S   S S  S  S S
-----------------------------------------------|
-----------------------------------------------|
----------------------------9------------------|
--------10----9------------------10-------9-7h-|
--7--7-----7----7--7--7--7----7-----7--7-------|
-----------------------------------------------|


         PM    PM PM        PM    PM PM   PM    PM
  T  T S S   S S  S  T  T S S   S S  S  S S   S S
---------------------------------------------------|
---------------------------------------------------|
----------------------------------------9----------|
--9-10-9----10-------9-10-9----10------------10----|
---------8-----8--8---------8-----8--8----8-----8--|
---------------------------------------------------|


  PM PM    PM   PM PM PM PM   PM    PM PM
  S  S   S S  S S  S  S  S  S S   S S  S  S S
-----------------------------------------------|
-----------------------------------------------|
----------------------------9------------------|
--------10----9------------------10-------9-7h-|
--7--7-----7----7--7--7--7----7-----7--7-------|
-----------------------------------------------|


  PM PM   PM   PM
  S  S  S S  S S   H        E
-------------------------------||
-------------------------------||
------------------10-----------||
-------------------7--------L--||
--0--0--L-0--L-0---7--------L--||
--0--0--L-0--L-0---7--------L--||




Duration Legend
---------------
W - whole
H - half
Q - quarter
E - 8th
S - 16th
T - 32nd
X - 64th
. - note dotted
|-n-|  - n-tuplets


Tablature Legend
----------------
L - tied note
x - dead note
g - grace note
(n) - ghost note
> - accentuded note
NH - natural harmonic
AH - artificial harmonic
TH - tapped harmonic
SH - semi harmonic
PH - pitch harmonic
h - hammer on
p - pull off
b - bend
br - bendRelease
pb - preBend
pbr - preBendRelease
brb - bendReleaseBend
\n/ - tremolo bar dip
\n - tremolo bar dive
-/n - tremolo bar Release up
/n\ - tremolo bar inverted dip
/n - tremolo bar return
-\n - tremolo bar Release down
S - shift slide
s - legato slide
/ -  slide into from below or out of upwards
\ -  slide into from above or out of downwards
~ - vibrato
W - wide vibrato
tr - trill
TP - tremolo picking
T - tapping
S - slap
P - pop
< - fade in
^ - brush up
v - brush down
Tap to rate this tab
 
# A B C D E F G H I J K L M N O P Q R S T U V W X Y Z