Misc Unsigned Bands - Vladimir Vaclavek - Drakuv Let tab

Drakuv let - Vladimír Václávek 
Tabbed by bazdesh

Legend
h - hammer on
p - pull off
s - slide

Song is in 3/4

Riff 1

E ||---------------------------------------|
B ||----------10-------------10------s12---|
G ||---------------------------------------|
D ||-------10----------10------------------|
A ||-0-------------------------------------|
E ||---------------------------------------|


----------------------------------------|
-----------8----------------------------|
----------------------------------------|
--------9-----------------------0-------|
--7-----------------------7-------------|
--------------------0-------------------|


--8--------7--------8-----8p7-----------|
--8-----------------------------8-------|
--7-------------------------------------|
----------------------------------------|
----------------------------------------|
----------------------------------------|


---------------------------------------||
--8--------7--------7h8p7--------------||
--7-----------------------------7------||
--7------------------------------------||
---------------------------------------||
---------------------------------------||


Riff 2

E ||----------------------------------------|
B ||-----------5--------------5s7-----------|
G ||----------------------------------------|
D ||--------5-----------5-------------------|
A ||--0-------------------------------------|
E ||----------------------------------------|


-----------7--------------0-------------|
--------------------------------3-------|
--------7-------------------------------|
----------------------------------------|
--7-------------------------------------|
--------------------0-------------------|


----------------------------------------|
--3-------------------------------------|
--5--------4--------5-----5p4-----------|
--5-----------------------------5-------|
----------------------------------------|
----------------------------------------|


----------------------------------------||
----------------------------------------||
----------------------------------------||
--5--------4--------4h5p4---------------||
--5-----------------------------5-------||
----------------------------------------||
Tap to rate this tab
 
# A B C D E F G H I J K L M N O P Q R S T U V W X Y Z