Song name
# A B C D E F G H I J K L M N O P Q R S T U V W X Y Z

Misc Unsigned Bands - Four Litre Friday - I Dont Know tab

-------------------------------------------------------------------------------
			 I don't know - Four Litre Friday
-------------------------------------------------------------------------------


Tabbed by:FEAR3445		
Email: aussie.croat3445@hotmail.com	

Tuning: Standard

Another song from an awesome band, go to their facebook page and like them
if you like them, band page here:
                  
http://www.facebook.com/fourlitrefriday


  Intro/Verse 1
e|---------|---------------------------------------------------------------------------------------|
B|---------|---------------------------------------------------------------------------------------|
G|---------|---------------------------------------------------------------------------------------|
D|-10----10|----------10----------10----------10---------10----------10----------10----------10----|
A|-8--8--8-|-8--8--8--8--8--8--8--8--8--8--8--8--8-10-10-10-10-10-10-10-10-10-10-10-10-10-10-10-10-|
E|---------|---------------------------------------------------------------------------------------|

 |-----------------------------------------------------------------------------------------|
 |-----------------------------------------------------------------------------------------|
 |-----------------------------------------------------------------------------------------|
 |-------10----------10----------10-------10-10--------10----------10-------10-------10-10-|
 |-12-12-12-12-12-12-12-12-12-12-12-12-12-12-12--10-10-10-10-10-10-10-10-10-10-10-10-10-10-|
 |-----------------------------------------------------------------------------------------|

 |------------------------------------------------------------------------------------------------|
 |------------------------------------------------------------------------------------------------|
 |------------------------------------------------------------------------------------------------|
 |-------10----------10----------10----------10---------10----------10----------10----------10----|
 |-8--8--8--8--8--8--8--8--8--8--8--8--8--8--8--8-10-10-10-10-10-10-10-10-10-10-10-10-10-10-10-10-|
 |------------------------------------------------------------------------------------------------|

 |-----------------------------------------------------------------------------------------------|
 |-----------------------------------------------------------------------------------------------|
 |-----------------------------------------------------------------------------------------------|
 |-------10----------10----------10----------10-----10-10-10-10-10-10-10-10-10-10-10-10-10-10-10-|
 |-12-12-12-12-12-12-12-12-12-12-12-12-12-12-12--10-10-10-10-10-10-10-10-10-10-10-10-10-10-10-10-|
 |-----------------------------------------------------------------------------------------------|
                                                    ^ Gradually get louder
 
  I don't know, what I have got myself into tonight, its better
  I don't know, what I have got myself into tonight, its better

 
   Chorus: (no vocals)
 |-------------------------------------------------------------------------------------------------|
 |-------------------------------------------------------------------------------------------------|
 |-------------------------------------------------------------------------------------------------|
 |-10-10-10-10-10-10-10-10-10-10-10-10-10-10-10-10-10-10-10-10-10-10-10-10-10-10-10-10-10-10-10-10-|
 |-8--8--8--8--8--8--8--8--8--7--7--7--7--7--7--7--7--x--x--x--x--x--x--x--x--x--x--x--x--x--x--x--|
 |----------------------------------------------------8--8--8--8--8--8--8--8--8--8--8--8--8--8--8--|
                                                                                                  x4

  Verse 2:

 |------------------------------------------------------------------------------------------------|
 |------------------------------------------------------------------------------------------------|
 |------------------------------------------------------------------------------------------------|
 |-------10----------10----------10----------10---------10----------10----------10----------10----|
 |-8--8--8--8--8--8--8--8--8--8--8--8--8--8--8--8-10-10-10-10-10-10-10-10-10-10-10-10-10-10-10-10-|
 |------------------------------------------------------------------------------------------------|
                                   
 |-------------------------------------------------------------------------------------------------|
 |-------------------------------------------------------------------------------------------------|
 |-------------------------------------------------------------------------------------------------|
 |-------10----------10----------10----------10----------10----------10----------10----------10----|
 |-12-12-12-12-12-12-12-12-12-12-12-12-12-12-12-12-10-10-10-10-10-10-10-10-10-10-10-10-10-10-10-10-|
 |-------------------------------------------------------------------------------------------------|

 |------------------------------------------------------------------------------------------------|
 |------------------------------------------------------------------------------------------------|
 |------------------------------------------------------------------------------------------------|
 |-------10----------10----------10----------10---------10----------10----------10----------10----|
 |-8--8--8--8--8--8--8--8--8--8--8--8--8--8--8--8-10-10-10-10-10-10-10-10-10-10-10-10-10-10-10-10-|
 |------------------------------------------------------------------------------------------------|

 |-------------------------------------------------------------------------------------------------|
 |-------------------------------------------------------------------------------------------------|
 |-------------------------------------------------------------------------------------------------|
 |-------10----------10----------10----------10-------10-10-10-10-10-10-10-10-10-10-10-10-10-10-10-|
 |-12-12-12-12-12-12-12-12-12-12-12-12-12-12-12-12-10-10-10-10-10-10-10-10-10-10-10-10-10-10-10-10-|
 |-------------------------------------------------------------------------------------------------|
                                                      ^ Gradually get louder
  I can't see, the lie just fades around me, its easy
  I can't see, the lie just fades around me, its easy! 

  Chorus: 
 |-------------------------------------------------------------------------------------------------|
 |-------------------------------------------------------------------------------------------------|
 |-------------------------------------------------------------------------------------------------|
 |-10-10-10-10-10-10-10-10-10-10-10-10-10-10-10-10-10-10-10-10-10-10-10-10-10-10-10-10-10-10-10-10-|
 |-8--8--8--8--8--8--8--8--8--7--7--7--7--7--7--7--7--x--x--x--x--x--x--x--x--x--x--x--x--x--x--x--|
 |----------------------------------------------------8--8--8--8--8--8--8--8--8--8--8--8--8--8--8--|
                                                                                                 x4
  Its time to say good night
  Its time to say good night
  Its time to say good night
  Its time to say good night


  A Ludey Interlude: (Hit the chorus effect if you have one, let all the notes ring)
 |---------------------------------------------------------------------------|
 |---------------------------------------------------------------------------|
 |------------9---------------9-------------------9--------------------9-----|
 |-----10------10------10------10--------10--------10---------10--------10---|
 |-8-8----8-8----8-8-8----8-8----8-10-10----10-10----10-10-10----10-10----10-|
 |---------------------------------------------------------------------------|

 |---------------------------------------------------------------------------------------|
 |---------------------------------------------------------------------------------------|
 |----------------9--------------------9-------------------9------------9----------9-----|
 |-------10--------10---------10--------10---------10--------10----------10---------10---|
 |-12-12----12-12----12-12-12----12-12----12-10-10----10-10----10-10-10----10-10-10---10-|
 |---------------------------------------------------------------------------------------|

 |---------------------------------------------------------------------------|
 |---------------------------------------------------------------------------|
 |------------9---------------9-------------------9--------------------9-----|
 |-----10------10------10------10--------10--------10---------10--------10---|
 |-8-8----8-8----8-8-8----8-8----8-10-10----10-10----10-10-10----10-10----10-|
 |---------------------------------------------------------------------------|

 |------------------------------------------------------------------------------------|
 |------------------------------------------------------------------------------------|
 |----------------9--------------------9-------------------9--------------------------|
 |-------10--------10---------10--------10---------10--------10---------10-------10---|
 |-12-12----12-12----12-12-12----12-12----12-10-10----10-10----10-10-10----10-10----8-|
 |------------------------------------------------------------------------------------|
 
  (Take off the chorus effect)
 |-------------------------------------------------------------------------------------------|
 |-------------------------------------------------------------------------------------------|
 |-------9-----------9-----------9-----------9-----------9-----------9--------9-----------9--|
 |-10-10-10-10-10-10-10-10-10-10-10-10-10-10-10-10-10-10-10-10-10-10-10-10-10-10-10-10-10-10-|
 |-8--8--8--8--8--8--8--8--8--8--8--8--8--8--8--8--10-10-10-10-10-10-10-10-10-10-10-10-10-10-|
 |-------------------------------------------------------------------------------------------|

 |-------------------------------------------------------------------------------------------|
 |-------------------------------------------------------------------------------------------|
 |-------9-----------9-----------9-----------9-----------9-----------9--------9-----------9--|
 |-10-10-10-10-10-10-10-10-10-10-10-10-10-10-10-10-10-10-10-10-10-10-10-10-10-10-10-10-10-10-|
 |-12-12-12-12-12-12-12-12-12-12-12-12-12-12-12-10-10-10-10-10-10-10-10-10-10-10-10-10-10-10-|
 |-------------------------------------------------------------------------------------------|
  
 (this is where the staccato notes appear)
 |---------------------------------------------------------------------------------------------|
 |---------------------------------------------------------------------------------------------|
 |----9---9---9---9---9---9---9------9---9---9---9---9---9---9------9---9---9---9---9---9---9--|
 |-10-10--10--10--10--10--10--10--10-10--10--10--10--10--10--10--10-10--10--10--10--10--10--10-|
 |-8--8---8---8---8---8---8---8---10-10--10--10--10--10--10--10--12-12--12--12--12--12--12--12-|
 |---------------------------------------------------------------------------------------------|

 |-------------------------|
 |-------------------------|
 |-------------------------|
 |-10----10-10-10-10-10-10-|
 |-10----10-10-10-10-10-10-|
 |-------------------------|

  Chorus: 
 |-------------------------------------------------------------------------------------------------|
 |-------------------------------------------------------------------------------------------------|
 |-------------------------------------------------------------------------------------------------|
 |-10-10-10-10-10-10-10-10-10-10-10-10-10-10-10-10-10-10-10-10-10-10-10-10-10-10-10-10-10-10-10-10-|
 |-8--8--8--8--8--8--8--8--8--7--7--7--7--7--7--7--7--x--x--x--x--x--x--x--x--x--x--x--x--x--x--x--|
 |----------------------------------------------------8--8--8--8--8--8--8--8--8--8--8--8--8--8--8--|
                                                                                                  x4
  Its time to say good night
  Its time to say good night
  Its time to say good night
  Its time to say good night

  

  And finished.

  Any comments, improvements and what not, you can post that in the comment section,
  or if you REALLY need to, feel free to email me with whatever, and im always up 
  for taking requests

  4LF 4 LIFE!!

  Cheers
Tap to rate this tab
 
# A B C D E F G H I J K L M N O P Q R S T U V W X Y Z