Song name
# A B C D E F G H I J K L M N O P Q R S T U V W X Y Z

Misc Unsigned Bands - Funktor - Ptak To Traktor tab

Intro:
  
 let ring all chords
e|-3--------3--------3--------3--------------------------------------------|
B|-5--------5--------5--------5--------------------------------------------|
G|-5--------5--------5--------5--------------------------------------------|
D|-5--------5--------5--------5--------------------------------------------|
A|-3--------3--------3--------3--------------------------------------------|
E|-------------------------------------------------------------------------|

verse:

e|--5-5-5-5--5-5-5-5--5-----12-12-12-12--7-7-7-7-----------------------|
B|--5-5-5-5--5-5-5-5--5-----13-13-13-13--8-8-8-8-----------------------|
G|--5-5-5-5--5-5-5-5--5-----14-14-14-14--9-9-9-9-----------------------|
D|---------------------------------------------------------------------|
A|---------------------------------------------------------------------|
E|---------------------------------------------------------------------|

Chorus:
                            x7
e|-------------------------|--------------------------------------------|
B|-------------------------|--------------------------------------------|
G|-6--6--6--6h7--7-7--7h9p7|---6--6--6--6h7--7--7--7--7--7--------------|
D|-------------------------|--------------------------------------------|
A|-------------------------|--------------------------------------------|
E|-------------------------|--------------------------------------------|

Listen to the song to learn the strumming pattern and song structure.  
Tap to rate this tab
 
# A B C D E F G H I J K L M N O P Q R S T U V W X Y Z