Misc Unsigned Bands - Rotten Bark - I Got You On My Own tab

E ------------------------------------------------------------------------|
H -00-0-00-0--------------------------00-0-00-0--------------1-0----------|
G ---3----3-00200--000200---000200------3----3-0200--00200-55-------------|
D ---------------35------535------32---------------35---------------------|
A ----------------------------------5-------------------------------------|
E ------------------------------------------------------------------------|

E ---------------------------------0---------------------------------0----|
H -3233-222-75----3333335333-333335--3233-222-75----3333335333-333335-----|
G ------------7776------------------------------7776----------------------|
D ------------------------------------------------------------------------|
A ------------------------------------------------------------------------|
E ------------------------------------------------------------------------|
Tap to rate this tab
 
# A B C D E F G H I J K L M N O P Q R S T U V W X Y Z